>
 >
A Call To The Faithful

A Call To The Faithful Guitar Tabs

Inhale Exhale - A Call To The Faithful chords, tabs, tablatures, lyrics

Guitar lessons | Add/correct | Request | Top 50 tabs Artists:  A B C D E F G H I J K L M N O P Q R S T U V W X Y Z 0-9

A Call To The Faithful Guitar Tabs – Inhale Exhale

CD, Sheet music, Poster

Do you like A Call To The Faithful? Share with your friends now
TabsTabs v2
---------------------------------------------------------------------------
---------------------------------------------------------------------------

Tuning: Drop C (CGCFAD)

The other tabs were missing a little bit. I tried to include all the variations of the riffs as 
well as the timing. Done by ear but this should be about 99% accurate. 


RIFF A (0:00-0:24) REPEAT 4x
D|-------------------------------------------------|
A|-------------------------------------------------|
F|-------------------------------------------------|
C|-0-----------------------------------------------|
G|-0---------6-----3-----5---------------------3p0-|
C|-0-0-0-0-0---0-0---0-0---0-0-3-0-0-3-0-0-3h5-----|
     . . . .   . .   . .   . .   . .   . .

D|--------------------------------------|
A|--------------------------------------|
F|--------------------------------------|
C|-0----------------------3-3--5-5--10\-|
G|-0---------6-----3------3-3--5-5--10\-|
C|-0-0-0-0-0---0-0---0-0--3-3--5-5--10\-|
    . . . .   . .   . .

RIFF B (0:25-0:37)
D|---------------------------------|
A|---------------------------------|
F|---------------------------------|
C|---------------------------------|
G|---------------------------------| x3
C|-0h3h6-0h3h5-0h3h6-0h3h5-0-0-0-0-|
                           . . . .

D|----------------------------|
A|----------------------------|
F|----------------------------|
C|--------------------------3-|
G|--------------------------3-|
C|-0h3h6-0h3h5--0-0-0-0-0-0-3-|
                . . . . . .

D|---------------------------------|
A|---------------------------------|
F|---------------------------------|
C|---------------------------------|
G|---------------------------------| x3
C|-0h3h6-0h3h5-0h3h6-0h3h5-0-0-0-0-|
                           . . . .

D|-----------------------------|
A|-----------------------------|
F|-----------------------------|
C|-------------------------3/\-|
G|-------------------------3/\-|
C|-0h3h6-0h3h5-3-3-3-3-3-3-3/\-|
               . . . . . .

RIFF C (0:38-0:43)
D|----------------------------------|
A|----------------------------------|
F|----------------------------------|
C|----------------------------------|
G|--------0h3h5-------0h3h5---------| x3
C|--0h3h5-------0h3h5-------0-0-0-0-|
                            . . . .

D|---------------------------------------|
A|---------------------------------------|
F|---------------------------------------|
C|-------------------------------------3-|
G|-------0h3h5-------0h3h5-------------3-|
C|-0h3h5-------0h3h5-------0-0-0-0-0-0-3-|
                           . . . . . .

0:44-0:50 REPEAT RIFF B

RIFF D (0:51-1:03) REPEAT 2x
D|----------------------------------|
A|----------------------------------|
F|----------------------------------|
C|-15-12-0-0-13-10-0-0-12-8-0-0-0-0-|
G|----------------------------------| x3
C|----------------------------------|
         . .       . .      . . . .

D|--------------------------------|
A|--------------------------------|
F|--------------------------------|
C|-7-8-0-0-8-10-0-0-10-12-0-0-13*-|
G|--------------------------------|
C|--------------------------------|
       . .      . .       . .

1:04-2:04 REPEAT EVERYTHING ABOVE 1x

RIFF E (2:05-2:18) REPEAT 2x
D|----------------------------------|
A|----------------------------------|
F|----------------------------------|
C|----------------------------------|
G|-15p12-----13p10-----12p8---------| x3
C|-------0-0-------0-0------0-0-0-0-|
          . .      . .      . . . .

D|----------------------------------|
A|----------------------------------|
F|----------------------------------|
C|----------------------------------|
G|-7h8-----8h10-----10h12-----12h13-|
C|-----0-0------0-0-------0-0-------|
       . .      . .       . .

RIFF F (2:19-2:31)
D|---------------------------------------------------------------------|
A|---------------------------------------------------------------------|
F|-------9-----10-----15-14-12-12/14---------9-----10-----15-14-12-14\-|
C|-0-----x------x------x--x--x--x/-x---0-----x------x------x--x--x--x\-|
G|-0-----7------8-----13-12-10-10/12-8-0-----7------8-----13-12-10-12\-| x2
C|-0-0-0---0-0----0-0------------------0-0-0---0-0----0-0--------------|
     . .   . .    . .                    . .   . .    . .


RIFF G 
(2:32-2:37)
D|---------------------------------|
A|---------------------------------|
F|---------------------------------|
C|-------------------------3h6-3p0-|
G|-------------0h3h6-0h3h6---------| x3
C|-0h3h6-0h3h5---------------------|

D|------------------------------|
A|------------------------------|
F|------------------------------|
C|--------------------------0/\-|
G|--------------------------0/\-|
C|-0h3h6-0h3h5--0-0-0-0-0-0-0/\-|
                . . . . . . 

(2:38-2:43)
D|---------------------------------|
A|---------------------------------|
F|---------------------------------|
C|-------------------------3h6-----|
G|-------0h3h5-------0h3h5-----3h5-| x3
C|-0h3h6-------0h3h6---------------|

D|----------------------------|
A|----------------------------|
F|----------------------------|
C|--------------------------0-|
G|-------0h3h5--------------0-|
C|-0h3h6--------0-0-0-0-0-0-0-|
                . . . . . . 

(2:44-2:50)
D|---------------------------------|
A|---------------------------------|
F|---------------------------------|
C|-------------------------3h6-0h3-|
G|-------------0h3h6-0h3h5---------| x3
C|-0h3h6-0h3h5---------------------|

(2:51-3:10)
D|----|
A|----|
F|----|
C|-0~-|
G|-0~-|
C|-0~-|

RIFF H (3:11-3:22)
D|---------------------------------------------|
A|---------------------------------------------|
F|---------------------------------------0h2h3-|
C|---------0h2h3-----------0h2h3---0h2h3-------|
G|---------------------------------------------|
C|-0-0-0-0-------0-0-0-0-0-------0-------------|
   . . . .       . . . . .       .

RIFF I (3:23-END)
D|------------------------------|
A|------------------------------|
F|-------10\-------7\-----------|
C|--------x\-------x\-----0h3p0-|
G|-0-0-0--8\-0-0-0-5\-0-0-------| repeat until end
C|-0-0-0-----0-0-0----0-0-------|
   . . .     . . .    . .




| .  palm mute
|   tremolo pick
| *  pinch harmonic
| ~  let note ring
| /  slide up
| \  slide down
| h  hammer-on
| p  pull-off
| v  vibrato
| +  natural harmonic
| x  mute note





Comments


Popular Inhale Exhale tabs & chords
A Call To The Faithful Intro Tabs
Dance All Night Tabs
Fluvanna 1 Tabs
Frail Dreams And Rude Awakenings Tabs
It's Myself Vs. Being A Man 2 Tabs
Its Myself Vs Being A Man Intro Tabs
Knowledge Priceless Intro Tabs
Lost The Sick The Sacred Tabs
Sons Of Tomorrow (To Noah James) 1 Tabs
Tonight We Die Together Tabs


Song lyrics



↑ Back to top | Tablatures and chords are parodies/interpretations of the original songs. You may use it for private study, scholarship, research or language learning purposes only
© 2014 AZChords.com Contact us | Privacy policy | DMCA | Add/correct tabs | Request tabs | Top 50 tabs