» » »

Jesters Dance Bass tabs (ver.2)

Artists:  A B C D E F G H I J K L M N O P Q R S T U V W X Y Z # 

Jesters Dance Bass tabs (ver.2)

In Flames
Rating:
0/5 (0 votes)

Hard to play? Try these video lessons and learn fast.
                Tunning B E A D G

Riff 1

|------------------------------------------------------------------|
|------------------------------------------------------------------|
|------------------------------------------------------------------| x3
|--1---1-1-1---1-1-1---1-1-1---1-1---------------------------------|
|----------------------------------2--2-2-2---2-2-4---4-4-4---4-4--|

Riff 1 (variation)

|---------------------------------------------------------------------|
|---------------------------------------------------------------------|
|---------------------------------------------------------------------| x1
|--1---1-1-1---1-1-1---1-1-1---1-1------------------------------------|
|----------------------------------2--2-2-2---2-2-4-4-4-4-4*---4--4**-|
                                         *follow the snare (optional)
                                        **follow the hi-hat


Riff 2

|-------------------------------------------------------------------|
|-------------------------------------------------------------------|
|-------------------------------------------------------------------| x1
|--1---1-1-1---1-1--------------------------------------------------|
|------------------2---2-2-2---2-2-4---4-4-4---4-4-4---4-4-4---4-4--|


Riff 2 (variation)

|---------------------------------------------------------------------|
|---------------------------------------------------------------------|
|---------------------------------------------------------------------| x1
|--1---1-1-1--1-1-----------------------------------------------------|
|-----------------2---2-2-2---2-2-4---4-4-4---4-4-4-4-4-4-4*---4-4**--|

                                              * and ** Same As Above

Riff 2

|-------------------------------------------------------------------|
|-------------------------------------------------------------------|
|-------------------------------------------------------------------| x1
|--1---1-1-1---1-1--------------------------------------------------|
|------------------2---2-2-2---2-2-4---4-4-4---4-4-4---4-4-4---4-4--|


Riff 2 (variation)

|---------------------------------------------------------------------|
|---------------------------------------------------------------------|
|---------------------------------------------------------------------| x1
|--1---1-1-1--1-1-----------------------------------------------------|
|-----------------2---2-2-2---2-2-4---4-4-4---4-4-4-4-4-4-4*---4-4**--|

                                              * and ** Same As Above

Riff 3

|---------------------------------------------------------------|
|---------------------------------------------------------------|
|---------------------------------------------------------------| x1
|--1~------------------------------4--1~---------1---1-3-1-3-4--|
|------4----1----2~-----2~--4----------------------4------------|

Riff 4

|---------------------------------|
|---------------------------------|
|---------------------------------| x2
|-1111111111111111----------------|
|-----------------2*-22*-22*--4*--|

*Follow the groove, it's not important how many notes


Riff 1

|------------------------------------------------------------------|
|------------------------------------------------------------------|
|------------------------------------------------------------------| x1
|--1---1-1-1---1-1-1---1-1-1---1-1---------------------------------|
|----------------------------------2--2-2-2---2-2-4---4-4-4---4-4--|


Riff 1 (variation)

|---------------------------------------------------------------------|
|---------------------------------------------------------------------|
|---------------------------------------------------------------------| x1
|--1---1-1-1---1-1-1---1-1-1---1-1------------------------------------|
|----------------------------------2--2-2-2---2-2-4-4-4-4-4*---4--4**-|

                                         *follow the snare (optional)
                                        **follow the hi-hat


Riff 3 ( 1st variation)


|------------------|--------|------------------|--------|
|------------------|--------|------------------|--------|
|------------------|-Guitar-|------------------|-Guitar-| x2
|--1~--------------|-riff---|-----------4--1~--|-riff---|
|------4----1----2~|--------|--2~--4-----------|--------|


Riff 3 (2nd variation)


|------------------|---------------|------------------|------------|
|------------------|---------------|------------------|------------|
|------------------|---------------|------------------|--------3/--| x2
|--1~--------------|---------------|-----------4--1~--|--1-3-4-----|
|------4----1----2~|--2-1-2-4-2-1--|--2~--4-----------|------------|



Riff 1

|------------------------------------------------------------------|
|------------------------------------------------------------------|
|------------------------------------------------------------------|Fading Away
|--1---1-1-1---1-1-1---1-1-1---1-1---------------------------------|
|----------------------------------2--2-2-2---2-2-4---4-4-4---4-4--|
            
Hard to play? Try these video lessons and learn fast. | Correct




comments powered by Disqus
↑ Back to top | Tablatures and chords are parodies/interpretations of the original songs. You may use it for private study, scholarship, research or language learning purposes only