» » »

Dawn Of A New Day Tabs (ver.2)

Artists:  A B C D E F G H I J K L M N O P Q R S T U V W X Y Z # 

Dawn Of A New Day Tabs (ver.2)

In Flames
Rating:
0/5 (0 votes)

Hard to play? Try these video lessons and learn fast.
                ^  vibrato
h  hammer on
p  pull off




intro
E|----------------------------------------------------------------------------------------
B|----------------------------------------------------------------------------------------
D|5--5-5-5-5-5--5-5-5-5-----------------------5--5-5-5-5----------------------------------
D|5--5-5-5-5-5--5-5-5-5-6--6-6-6-6-8--8-8-8-8-5--5-5-5-5-6--6-6-6-6-8--8-8-8-8-5--5-5-5-5-
A|3--3-3-3-3-3--3-3-3-3-6--6-6-6-6-8--8-8-8-8-3--3-3-3-3-6--6-6-6-6-8--8-8-8-8-5--5-5-5-5-
E|----------------------4--4-4-4-4-6--6-6-6-6------------4--4-4-4-4-6--6-6-6-6-3--3-3-3-3-
reapet 1 time

verse
E|----------------------------------------------------------------------------------------------------
B|----------------6-----6----------------6-----6---------------6-----6----------------8-9-8-----------
G|----3-----3-----------------3-5-3------------------3-5-3-----------------3-5-3------------10-9h10---
D|--5-----5-----5-----5-----5---------5------5-----5---------5-----5-----5--------------------------10
A|3-----3-----3-----3-----3---------3------3-----3---------3-----3-----3------------------------------
E|----------------------------------------------------------------------------------------------------


chorus
E|----------------------------------------------------------------------------------------
B|----------------------------------------------------------------------------------------
D|5--5-5-5-5-5--5-5-5-5-----------------------5--5-5-5-5----------------------------------
D|5--5-5-5-5-5--5-5-5-5-6--6-6-6-6-8--8-8-8-8-5--5-5-5-5-6--6-6-6-6-8--8-8-8-8-5--5-5-5-5-
A|3--3-3-3-3-3--3-3-3-3-6--6-6-6-6-8--8-8-8-8-3--3-3-3-3-6--6-6-6-6-8--8-8-8-8-5--5-5-5-5-
E|----------------------4--4-4-4-4-6--6-6-6-6------------4--4-4-4-4-6--6-6-6-6-3--3-3-3-3-
reapet 3 times


verse
E|----------------------------------------------------------------------------------------------------
B|----------------6-----6----------------6-----6---------------6-----6----------------8-9-8-----------
G|----3-----3-----------------3-5-3------------------3-5-3-----------------3-5-3------------10-9h10---
D|--5-----5-----5-----5-----5---------5------5-----5---------5-----5-----5--------------------------10
A|3-----3-----3-----3-----3---------3------3-----3---------3-----3-----3------------------------------
E|----------------------------------------------------------------------------------------------------


chorus
E|----------------------------------------------------------------------------------------
B|----------------------------------------------------------------------------------------
D|5--5-5-5-5-5--5-5-5-5-----------------------5--5-5-5-5----------------------------------
D|5--5-5-5-5-5--5-5-5-5-6--6-6-6-6-8--8-8-8-8-5--5-5-5-5-6--6-6-6-6-8--8-8-8-8-5--5-5-5-5-
A|3--3-3-3-3-3--3-3-3-3-6--6-6-6-6-8--8-8-8-8-3--3-3-3-3-6--6-6-6-6-8--8-8-8-8-5--5-5-5-5-
E|----------------------4--4-4-4-4-6--6-6-6-6------------4--4-4-4-4-6--6-6-6-6-3--3-3-3-3-
reapet 5 times



Solo
E|---------------------------------------------------------------------------------
B|---------------------------------------------------------------------------------
G|---------------------------------------------------------------------------------
D|13^--10h12p10-13-12-10---------------------------10h12p10-13-12-10---------------
A|-----------------------11----10--11-10---10-11-10--------------------11-8--11-10---
E|--------------------------13---------------------------------------------------11

E|----------------------------------------------------------------------------------------
B|----------------------------------------------------------------------------------------
G|----------------------------------------------------------------------12-10-------------
D|---------------------10---------------------------------10--10h13p101-----------13-12---
A|10-11-13---10-11-13-----13-11-10---10-11-13---10-11-13--------------------------------13
E|----------------------------------------------------------------------------------------



reapet the chorus around 10 times and then thats the end of the song
            
Hard to play? Try these video lessons and learn fast. | Correct




comments powered by Disqus
↑ Back to top | Tablatures and chords are parodies/interpretations of the original songs. You may use it for private study, scholarship, research or language learning purposes only