» » »

In Flames, Cloud Connected Tabs (ver.2)

Artists:  A B C D E F G H I J K L M N O P Q R S T U V W X Y Z # 

Cloud Connected Tabs (ver.2)

In Flames Tabs
 Rating:
4/5 (4 votes)
Cloud Connected lessons Tabs too difficult? Try these video lessons and learn fast
                Pm.: Palm Mute (pretty strong in this song)
~: Let ring
h: Hammer-on

That's all you need for this song.

Tune to C

Intro:
|--------------------------------------------------------------------------------------
|--------------------------------------------------------------------------------------
|-----------7--------------------------------------------------------------------------
|-2-2--2-2--7--2-2--2-2----------------------------------------------------------------x2
|-2-2--2-2--5--2-2--2-2----------------------------------------------------------------
|-0-0--0-0-----0-0--0-0----------------------------------------------------------------
Pm. .  . .     . .  . .

Verse 1:
|------------------------------|-------------------------------------------------------
|------------------------------|-------------------------------------------------------
|------------------------------|--9~--11~--9~------------------------------------------
|------------------------------|--9~--11~--9~--9~--------------------------------------x8
|-7----5h7---10---9---5-----5--|--7~--9~---7~--9~--------------------------------------
|--0-0-----0----0---0---7-7----|---------------7~--------------------------------------
Pm . .     .    .   .   . .       \_____________/ second+third time around

Verse 2:
|--------------------------------------------------------------------------------------
|--------------------------------------------------------------------------------------
|-----------7--------------------------------------------------------------------------
|-2-2--2-2--7--2-2--2-2----------------------------------------------------------------
|-2-2--2-2--5--2-2--2-2----------------------------------------------------------------
|-0-0--0-0-----0-0--0-0----------------------------------------------------------------
Pm. .  . .     . .  . .

Verse 1
Verse 2

Pre-chorus:
|--------------------------------------------------------------------------------------
|--------------------------------------------------------------------------------------
|------------------------------------------7-------------------------------------------
|------------------------------------------7--5----------------------------------------
|-7----5h7---10---9---5-----5-0------------5--5----------------------------------------
|--0-0-----0----0---0---7-7-----0-0-3h5-5-----3----------------------------------------
Pm . .     .    .   .   . .     . .

Chorus:
|--------------------------------------------------------------------------------------
|--------------------------------------------------------------------------------------
|--------------------------------------------------------------------------------------
|------------------4444444444444444------------------444444444-22222222----------------
|-5555555555555555-2222222222222222-5555555555555555-222222222-00000000----------------
|-3333333333333333------------------3333333333333333-----------------------------------
"I've come to realize... with every little glimpse... you fade" etc. etc. etc.

Verse 2
Verse 1
Verse 2

Little fill sort of thing at the end of Verse 2
|--------------------------------------------------------------------------------------
|--------------------------------------------------------------------------------------
|--------------------------------------------------------------------------------------
|-10101010101010-10101010101010-7777777------------------------------------------------
|-8-8-8-8-8-8-8--7-7-7-7-7-7-7--5555555------------------------------------------------
|--------------------------------------------------------------------------------------

Chorus
Verse 2 under first solo

Under second solo:
|--------------------------------------------------------------------------------------
|--------------------------------------------------------------------------------------
|------9~------------------------------------------------------------------------------
|-10~--9~--12~--9~---------------------------------------------------------------------
|-10~--7~--12~--9~---------------------------------------------------------------------
|-8~-------10~--7~---------------------------------------------------------------------

Chorus
Verse 1
Verse 2

Thank you!
            
Submit corrections

comments powered by Disqus
↑ Back to top | In Flames Tabs for Cloud Connected. Lyrics for acoustic guitar and electric guitar. Tablatures and chords are parodies/interpretations of the original songs. You may use it for private study, scholarship, research or language learning purposes only