>
 >
Bullet Ride 1

Bullet Ride 1 Guitar Tabs

In Flames - Bullet Ride 1 chords, tabs, tablatures, lyrics

Guitar lessons | Add/correct | Request | Top 50 tabs Artists:  A B C D E F G H I J K L M N O P Q R S T U V W X Y Z 0-9

Bullet Ride 1 Guitar Tabs – In Flames

CD, Sheet music, Poster

Do you like Bullet Ride 1? Share with your friends now
Bass TabsTabsTabs v2Tabs v3

Tuning: 2 steps down (C F A# D# G C)


Intro
Gtr.1
|---------------------------------------------|
|---------------------------------------------|
|-4444----4444----44----6666----6666----66----|
|-4444----4444----44----4444----4444----44----|
|------22------22----22------22------22----22-|
|---------------------------------------------|
| Gtr.2 |
|---------------------------------------------|
|---------------------------------------------|
|-4--------------(4)--------------------------|
|-4--------------(4)--------------------------|
|-2--------------(2)--------------------------|
|---------------------------------------------|
Gtr.1
|---------------------------------------------|
|---------------------------------------------|
|-7777----7777----77----6666----6666----2-5---|
|-5555----5555----55----7777----7777----2-5---|
|------22------22----22------00------00-0-3---|
|---------------------------------------------|
|Gtr.2 |
|---------------------------------------------|
|---------------------------------------------|
|(4)-------------(4)--------------------2-5---|
|(4)-------------(4)--------------------2-5---|
|(2)-------------(2)--------------------0-3---|
|---------------------------------------------|

Gtr.1 and 2
|---------------------------------------------|
|---------------------------------------------|
|-4444----4444----44----6666----6666----66----|
|-4444----4444----44----4444----4444----44----|
|------22------22----22------22------22----22-|
|---------------------------------------------|

|---------------------------------------------|------|
|---------------------------------------------|------|
|-7777----7777----77----6666----6666----2-5---|-2----|
|-5555----5555----55----7777----7777----2-5---|-2----|
|------22------22----22------00------00-0-3---|-0-3*-|
|---------------------------------------------|------|
Gtr.2 Pinch Harmonic
Verse
Gtr.1
|----------------------------------------------------------------|
|-------2----------2------3---2----------2----------2----------2-|
|---2----------2--------4------------2----------2----------4-----|
|-4---4------4---4-----------------4---4------4---4------2---2---|
|----------------------------------------------------------------|
|----------------------------------------------------------------|
|Gtr.2 |
|-------------------------2---0----------------------------------|
|-------2----------2----0---0------------2----------2----------2-|
|---2----------2---------------------2----------2----------4-----|
|-4---4------4---4-----------------4---4------4---4------2---2---|
|----------------------------------------------------------------|
|----------------------------------------------------------------|

Pre-Chorus

|-----------------------------------------------------|
|-15-14\7-/13-14\--7-7-8-8---8-10-10/12-12/14-14/15---|
|-----------------------------------------------------|
|-12-11\4-/12-11\--4-4-5-5---5-7---7/9---9/11-11/12---|
|-----------------------------------------------------|
|-----------------------------------------------------|
| |
|-----------------------------------------------------|
|-----------------------------------------------------|
|-4444--4444--4779\-----------------------------------|
|-4444--4444--4779\-----------------------------------|
|-2222--2222--2557\---2222222------------------5------|
|---------------------0000000----0-2-2-3-3-5-5--------|

Chorus
Gtr.1
|--------------------------------------------|
|--------------------------------------------|
|-11-9---------9-----------------------------|
|------12~--12---12-11~--9-12-11-99-12-11-9~-|
|--------------------------------------------|
|--------------------------------------------|
|Gtr.2 |
|--------------------------------------------|
|--------------------------------------------|
|--------------------------------------------|
|12-11-9~----9-11-9---------9--------9-------|
|-------------------12~--10---12-1010--12-10~|
|--------------------------------------------|
|Gtr.3 |
|--------------------------------------------|
|--------------------------------------------|
|-4-4-4-444----------------------------------|
|-4-4-4-444----------------------------------|
|-2-2-2-222-4-4-4-444--5-5-5-555------2------|
|-----------2-2-2-222--3-3-3-333------0------|

Gtr.1
|----------------------------------------------------|
|----------------------------------------------------|
|-11-9---------9-------------------------------------|
|-----12~--12---12-11~--12/14-14/16-16/17-17/19--/20~|
|----------------------------------------------------|
|----------------------------------------------------|
|Gtr.2 |
|----------------------------------------------------|
|----------------------------------------------------|
|----------------------------------------------------|
|12-11-9~----9-11-9----------------------------------|
|------------------12~---5/7---7/9---9/10-10/12--/13-|
|----------------------------------------------------|
| |
|----------------------------------------------------|
|----------------------------------------------------|
|-4-4-4-444------------------------------------------|
|-4-4-4-444------------------------------------------|
|-2-2-2-222-4-4-4-444---5-5-5-555------7-7--8-8-8-8--|
|-----------2-2-2-222---3-3-3-333------5-5--6-6-6-6--|

Bridge
Gtr.1 and 2
|---------------------------------------------|
|---------------------------------------------|
|-4444----4444----44----6666----6666----66----|
|-4444----4444----44----4444----4444----44----|
|------22------22----22------22------22----22-|
|---------------------------------------------|

|-----------------------------------------------|
|-----------------------------------------------|
|-7777----7777----77----6666----66--------------|
|-5555----5555----55----7777----77--------------|
|------22------22----22------00-------5-4h5p4---|
|-----------------------------------2---------5-|
| |
|-----------------------------------------------|
|-----------------------------------------------|
|-7777----7777----77----6666----66--------------|
|-5555----5555----55----7777----77----4-2h4p2---|
|------22------22----22------00---------------4-|
|-----------------------------------2-----------|

Bridge
Gtr.1
|----------------------------------------|
|------10-----------10----------10-------|
|------------12-----------12----------12-|
|--------------12-----------12-----------|
|-1010----10-----10----10-----10---10----|
|----------------------------------------|
|Gtr.2 |
|----------------------------------------|
|----------------------------------------|
|------11----9------11----9------9-----7-|
|--------------12-----------12-----------|
|-1010----10-----10----10-----10----10---|
|----------------------------------------|
Gtr.1
|----------------------------------------|
|----------------------------------------|
|----12---1111---12---11----9-11p12h9----|
|-99----9------9----9----99-----------10-|
|----------------------------------------|
|----------------------------------------|
|Gtr.2 |
|----------------------------------------|
|----------------------------------------|
|-----9----77-----9----7-------7h9p5-----|
|-99----9-------9---9----99---------11-9-|
|----------------------------------------|
|----------------------------------------|
Gtr.1
|----------------------------------------|
|------10-----------10----------10-------|
|------------12-----------12----------12-|
|--------------12-----------12-----------|
|-1010----10-----10----10-----10---10----|
|----------------------------------------|
|Gtr.2 |
|----------------------------------------|
|----------------------------------------|
|------11----9------11----9------9-----7-|
|--------------12-----------12-----------|
|-1010----10-----10----10-----10----10---|
|----------------------------------------|


Solo
Gtr.1
|---------------------------------------------------------------------|
|---------17-19h20p19~---19-------19-------19----20----19----17----19-|
|---16-16-------------------19-16----19-16----16----16----16----16----|
|17-------------------------------------------------------------------|
|---------------------------------------------------------------------|
|---------------------------------------------------------------------|
|Gtr.2 |
|------------17h19p17~------------------------------------------------|
|---------20-------------------------------------17-------------------|
|---16-19----------------19-16----19-16----19-16----16-19-16-18-16-19-|
|17----------------------------17-------17----------------------------|
|---------------------------------------------------------------------|
|---------------------------------------------------------------------|
Gtr.1
|-------------------17~---19~--21~-21^-19~--|
|-19-20-19-17-19-17-------------------------|
|-------------------------------------------|
|-------------------------------------------|
|-------------------------------------------|
|-------------------------------------------|
|Gtr.2 |
|------------------------------17~--17^-15--|
|----17-------------19~---20~---------------|
|-19----19-18-19-18-------------------------|
|-------------------------------------------|
|-------------------------------------------|
|-------------------------------------------|





Comments


Popular In Flames tabs & chords
The Jester Race Bass Tabs
The Jester Race 2 Bass Tabs
Artifacts Of The Black Rain 3 Tabs
Disconnected 1 Tabs
Everlost (Part 2) Tabs
Fear Is The Weakness Tabs
Moonshield 2 Tabs
Scream Tabs
Square Nothing Tabs
Only For The Weak Ukulele


Song lyrics



↑ Back to top | Tablatures and chords are parodies/interpretations of the original songs. You may use it for private study, scholarship, research or language learning purposes only
© 2014 AZChords.com Contact us | Privacy policy | DMCA | Add/correct tabs | Request tabs | Top 50 tabs