>
 >
Suliman

Suliman Guitar Tabs

Infected Mushroom - Suliman chords, tabs, tablatures, lyrics

Guitar lessons | Add/correct | Request | Top 50 tabs Artists:  A B C D E F G H I J K L M N O P Q R S T U V W X Y Z 0-9

Suliman Guitar Tabs – Infected Mushroom

CD, Sheet music, Poster

Do you like Suliman? Share with your friends now
Tabs
Infected Mushroom- Suliman

Includes:

bass
acoustic rythm
electric clean rythm
electric distorted lead

----------------------------------------------------------------------------------

This tab was coppied from the guitar pro one and transposed to how it is actually 
(live anyways)
Personally, this version is way easier to play.
I found the tab is good for learning the basic melody of the song, then once You know it 
along with the
actual song and solo the crap out of it and change it around.

OH! and I also uploaded my modified GP file incase You want that too!


Any questions:

Enjoy this and have fun!

----------------------------------------------------------------------------------
Acoustic sounding Rythm:
(Capo on 1st Fret)
And just in case You actually wanna play this, the numbers are
counted from the capo. So the 2 on the A string down there is
actually on the 3rd fret.

     E  E  E  E  E  E  E  E     E  E  E  E  E  E  E  E
E||--------------------------|--------------------------|
B||-----------------0--------|-----------------0--------|
G||--------------0-----0-----|--------------0-----0-----|
D||-----------2-----------2--|-----------2-----------2--|
A||--------2-----------------|--------2-----------------|
E||--0--0--------------------|--0--0--------------------|


  ^        ^        ^        ^        ^        ^
  E  E  E  E  E  E  E  E     E  E  E  E  E  E  E  E
--------------------------|--------------------------|
--------------------------|--------------------------|
--------------------------|--------------------------|
-----------5-----------5--|-----------7-----------7--|
--------5--------5--------|--------7--------7--------|
--3--3--------3-----3-----|--5--5--------5-----5-----|


  ^              ^           ^              ^
  E  E  E  E  E  E  E  E     E  E  E  E  E  E  E  E
--------------------------|--------------------------|
-----------------0--------|-----------------0--------|
--------------0-----0-----|--------------0-----0-----|
-----------2-----------2--|-----------2-----------2--|
--------2-----------------|--------2-----------------|
--0--0--------------------|--0--0--------------------|


  ^     ^        ^
  E  E  E  E  E  E  E  E     E  E  E  E  E  E  E  E
--------------------------|--------------------------|
--------------------------|--------------------------|
--------------------------|--------------------------|
--------7-----------------|--------7-----------------|
-----------------7--------|-----------------7--------|
--5--5-----5--5-----5--5--|--5--5-----5--5-----5--5--|


  ^              ^           ^              ^
  E  E  E  E  E  E  E  E     E  E  E  E  E  E  E  E
--------------------------|--------------------------|
-----------------0--------|-----------------0--------|
--------------0-----0-----|--------------0-----0-----|
-----------2-----------2--|-----------2-----------2--|
--------2-----------------|--------2-----------------|
--0--0--------------------|--0--0--------------------|


  ^        ^        ^        ^        ^        ^
  E  E  E  E  E  E  E  E     E  E  E  E  E  E  E  E
--------------------------|--------------------------|
--------------------------|--------------------------|
--------------------------|--------------------------|
-----------5-----------5--|-----------7-----------7--|
--------5--------5--------|--------7--------7--------|
--3--3--------3-----3-----|--5--5--------5-----5-----|


  ^              ^           ^              ^
  E  E  E  E  E  E  E  E     E  E  E  E  E  E  E  E
--------------------------|--------------------------|
-----------------0--------|-----------------0--------|
--------------0-----0-----|--------------0-----0-----|
-----------2-----------2--|-----------2-----------2--|
--------2-----------------|--------2-----------------|
--0--0--------------------|--0--0--------------------|


  ^     ^        ^
  E  E  E  E  E  E  E  E     E  E  E  E  E  E  E  E
--------------------------|--------------------------|
--------------------------|--------------------------|
--------------------------|--------------------------|
--------7-----------------|--------7-----------------|
-----------------7--------|-----------------7--------|
--5--5-----5--5-----5--5--|--5--5-----5--5-----5--5--|


  ^              ^           ^              ^
  E  E  E  E  E  E  E  E     E  E  E  E  E  E  E  E
--------------------------|--------------------------|
-----------------0--------|-----------------0--------|
--------------0-----0-----|--------------0-----0-----|
-----------2-----------2--|-----------2-----------2--|
--------2-----------------|--------2-----------------|
--0--0--------------------|--0--0--------------------|


  ^        ^        ^        ^        ^        ^
  E  E  E  E  E  E  E  E     E  E  E  E  E  E  E  E
--------------------------|--------------------------|
--------------------------|--------------------------|
--------------------------|--------------------------|
-----------5-----------5--|-----------7-----------7--|
--------5--------5--------|--------7--------7--------|
--3--3--------3-----3-----|--5--5--------5-----5-----|


  ^              ^           ^              ^
  E  E  E  E  E  E  E  E     E  E  E  E  E  E  E  E
--------------------------|--------------------------|
-----------------0--------|-----------------0--------|
--------------0-----0-----|--------------0-----0-----|
-----------2-----------2--|-----------2-----------2--|
--------2-----------------|--------2-----------------|
--0--0--------------------|--0--0--------------------|


  ^     ^        ^
  E  E  E  E  E  E  E  E     E  E  E  E  E  E  E  E
--------------------------|--------------------------|
--------------------------|--------------------------|
--------------------------|--------------------------|
--------7-----------------|--------7-----------------|
-----------------7--------|-----------------7--------|
--5--5-----5--5-----5--5--|--5--5-----5--5-----5--5--|


  W
-------------------|-------------------|-------------------|
-------------------|-------------------|-------------------|
-------------------|-------------------|-------------------|
--L----------------|-------------------|-------------------|
--L----------------|-------------------|-------------------|
--L----------------|-------------------|-------------------|


                                          ^              ^
                                          E  E  E  E  E  E  E  E
-------------------|-------------------|--------------------------|
-------------------|-------------------|-----------------0--------|
-------------------|-------------------|--------------0-----0-----|
-------------------|-------------------|-----------2-----------2--|
-------------------|-------------------|--------2-----------------|
-------------------|-------------------|--0--0--------------------|


  ^              ^           ^        ^        ^
  E  E  E  E  E  E  E  E     E  E  E  E  E  E  E  E
--------------------------|--------------------------|
-----------------0--------|--------------------------|
--------------0-----0-----|--------------------------|
-----------2-----------2--|-----------5-----------5--|
--------2-----------------|--------5--------5--------|
--0--0--------------------|--3--3--------3-----3-----|


  ^        ^        ^        ^              ^
  E  E  E  E  E  E  E  E     E  E  E  E  E  E  E  E
--------------------------|--------------------------|
--------------------------|-----------------0--------|
--------------------------|--------------0-----0-----|
-----------7-----------7--|-----------2-----------2--|
--------7--------7--------|--------2-----------------|
--5--5--------5-----5-----|--0--0--------------------|


  ^              ^           ^     ^        ^
  E  E  E  E  E  E  E  E     E  E  E  E  E  E  E  E
--------------------------|--------------------------|
-----------------0--------|--------------------------|
--------------0-----0-----|--------------------------|
-----------2-----------2--|--------7-----------------|
--------2-----------------|-----------------7--------|
--0--0--------------------|--5--5-----5--5-----5--5--|


                             ^              ^
  E  E  E  E  E  E  E  E     E  E  E  E  E  E  E  E
--------------------------|--------------------------|
--------------------------|-----------------0--------|
--------------------------|--------------0-----0-----|
--------7-----------------|-----------2-----------2--|
-----------------7--------|--------2-----------------|
--5--5-----5--5-----5--5--|--0--0--------------------|


  ^              ^           ^        ^        ^
  E  E  E  E  E  E  E  E     E  E  E  E  E  E  E  E
--------------------------|--------------------------|
-----------------0--------|--------------------------|
--------------0-----0-----|--------------------------|
-----------2-----------2--|-----------5-----------5--|
--------2-----------------|--------5--------5--------|
--0--0--------------------|--3--3--------3-----3-----|


  ^        ^        ^        ^              ^
  E  E  E  E  E  E  E  E     E  E  E  E  E  E  E  E
--------------------------|--------------------------|
--------------------------|-----------------0--------|
--------------------------|--------------0-----0-----|
-----------7-----------7--|-----------2-----------2--|
--------7--------7--------|--------2-----------------|
--5--5--------5-----5-----|--0--0--------------------|


  ^              ^           ^     ^        ^
  E  E  E  E  E  E  E  E     E  E  E  E  E  E  E  E
--------------------------|--------------------------|
-----------------0--------|--------------------------|
--------------0-----0-----|--------------------------|
-----------2-----------2--|--------7-----------------|
--------2-----------------|-----------------7--------|
--0--0--------------------|--5--5-----5--5-----5--5--|


  E  E  E  E  E  E  E  E     W
--------------------------|-------------------|-------------------||
--------------------------|-------------------|-------------------||
--------------------------|-------------------|-------------------||
--------7-----------------|--L----------------|-------------------||
-----------------7--------|--L----------------|-------------------||
--5--5-----5--5-----5--5--|--L----------------|-------------------||


----------------------------------------------------------------------------------|
----------------------------------------------------------------------------------|
Clean sounding Rythm:

E||-------|-------|-------|-------|-------|-------|-------|
B||-------|-------|-------|-------|-------|-------|-------|
G||-------|-------|-------|-------|-------|-------|-------|
D||-------|-------|-------|-------|-------|-------|-------|
A||-------|-------|-------|-------|-------|-------|-------|
E||-------|-------|-------|-------|-------|-------|-------|


  Q.     Q     E  E  E     Q    E   H          E
------------------------|-------------------------|
--------------11--9--8--|--9----8-----------------|
------------------------|----------10~--------10--|
------------------------|-------------------------|
------------------------|-------------------------|
------------------------|-------------------------|


   E  E   E  E  E   E  E  E     Q    E   Q.       E  E
-----------------------------|--------------------------|
-------------------11--9--8--|--9----8------------------|
---L--9--10--9--6------------|----------10~------10--9--|
-----------------------------|--------------------------|
-----------------------------|--------------------------|
-----------------------------|--------------------------|


   E  E  E   Q      E  E  E     Q    E   H          E
-----------------------------|-------------------------|
------8--9--11~----11--9--8--|--9----8-----------------|
--10-------------------------|----------10~--------10--|
-----------------------------|-------------------------|
-----------------------------|-------------------------|
-----------------------------|-------------------------|


   E  E   E  E  E   E  E  E      Q    E  Q    E  Q
-----------------------------|-----------8-------9----|
-----------------------8--9--|--11----9-------9-------|
---L--9--10--9--6--10--------|------------------------|
-----------------------------|------------------------|
-----------------------------|------------------------|
-----------------------------|------------------------|


  E   Q    E   E   E  E  E     Q    E   H          E
-----12-------15s--6--------|-------------------------|
--9--------9----------9--8--|--9----8-----------------|
----------------------------|----------10~--------10--|
----------------------------|-------------------------|
----------------------------|-------------------------|
----------------------------|-------------------------|


   E   E  E   E  E   E  E  E     Q    E   Q.       E  E
------------------------------|--------------------------|
--------------------11--9--8--|--9----8------------------|
---L--10--9--10--6------------|----------10~------10--9--|
------------------------------|--------------------------|
------------------------------|--------------------------|
------------------------------|--------------------------|


   E  E  E   Q      E  E  E     Q    E   H          E
-----------------------------|-------------------------|
------8--9--11~----11--9--8--|--9----8-----------------|
--10-------------------------|----------10~--------10--|
-----------------------------|-------------------------|
-----------------------------|-------------------------|
-----------------------------|-------------------------|


   E  E   E  E  E   E  E  E      Q    E  Q    E  Q
-----------------------------|-----------8-------9----|
-----------------------8--9--|--11----9-------9-------|
---L--9--10--9--6--10--------|------------------------|
-----------------------------|------------------------|
-----------------------------|------------------------|
-----------------------------|------------------------|


  E   Q    E   Q     Q        W
-----12-------15----13~----|--L----------------|-------------------|
--9--------9---------------|-------------------|-------------------|
---------------------------|-------------------|-------------------|
---------------------------|-------------------|-------------------|
---------------------------|-------------------|-------------------|
---------------------------|-------------------|-------------------|


                                          Q.     Q     E  E  E
-------------------|-------------------|------------------------|
-------------------|-------------------|--------------11--9--8--|
-------------------|-------------------|------------------------|
-------------------|-------------------|------------------------|
-------------------|-------------------|------------------------|
-------------------|-------------------|------------------------|


  Q    E   H          E      E  E   E  E  E   E  E  E
-------------------------|-----------------------------|
--9----8-----------------|-------------------11--9--8--|
----------10~--------10--|---L--9--10--9--6------------|
-------------------------|-----------------------------|
-------------------------|-----------------------------|
-------------------------|-----------------------------|


  Q    E   Q.       E  E      E  E  E   Q      E  E  E
--------------------------|-----------------------------|
--9----8------------------|------8--9--11~----11--9--8--|
----------10~------10--9--|--10-------------------------|
--------------------------|-----------------------------|
--------------------------|-----------------------------|
--------------------------|-----------------------------|


  Q    E   H          E      E  E   E  E  E   E  E  E
-------------------------|-----------------------------|
--9----8-----------------|-----------------------8--9--|
----------10~--------10--|---L--9--10--9--6--10--------|
-------------------------|-----------------------------|
-------------------------|-----------------------------|
-------------------------|-----------------------------|


   Q    E  Q    E  Q       E   Q    E   E   E  E  E
-----------8-------9----|-----12-------15s--6--------|
--11----9-------9-------|--9--------9----------9--8--|
------------------------|----------------------------|
------------------------|----------------------------|
------------------------|----------------------------|
------------------------|----------------------------|


  Q    E   H          E      E   E  E   E  E   E  E  E
-------------------------|------------------------------|
--9----8-----------------|--------------------11--9--8--|
----------10~--------10--|---L--10--9--10--6------------|
-------------------------|------------------------------|
-------------------------|------------------------------|
-------------------------|------------------------------|


  Q    E   Q.       E  E      E  E  E   Q      E  E  E
--------------------------|-----------------------------|
--9----8------------------|------8--9--11~----11--9--8--|
----------10~------10--9--|--10-------------------------|
--------------------------|-----------------------------|
--------------------------|-----------------------------|
--------------------------|-----------------------------|


  Q    E   H          E      E  E   E  E  E   E  E  E
-------------------------|-----------------------------|
--9----8-----------------|-----------------------8--9--|
----------10~--------10--|---L--9--10--9--6--10--------|
-------------------------|-----------------------------|
-------------------------|-----------------------------|
-------------------------|-----------------------------|


   Q    E  Q    E  Q       E   Q    E   Q     Q
-----------8-------9----|-----12-------15----13~----|
--11----9-------9-------|--9--------9---------------|
------------------------|---------------------------|
------------------------|---------------------------|
------------------------|---------------------------|
------------------------|---------------------------|


  W
--L----------------|-------------------||
-------------------|-------------------||
-------------------|-------------------||
-------------------|-------------------||
-------------------|-------------------||
-------------------|-------------------||


----------------------------------------------------------------------------------|
----------------------------------------------------------------------------------|
And finally...

Distorted sounding Lead:

E||-------|-------|-------|-------|-------|-------|-------|-------|
B||-------|-------|-------|-------|-------|-------|-------|-------|
G||-------|-------|-------|-------|-------|-------|-------|-------|
D||-------|-------|-------|-------|-------|-------|-------|-------|
A||-------|-------|-------|-------|-------|-------|-------|-------|
E||-------|-------|-------|-------|-------|-------|-------|-------|


-------|-------|-------|-------|-------|-------|-------|
-------|-------|-------|-------|-------|-------|-------|
-------|-------|-------|-------|-------|-------|-------|
-------|-------|-------|-------|-------|-------|-------|
-------|-------|-------|-------|-------|-------|-------|
-------|-------|-------|-------|-------|-------|-------|


  H        E   E  E  E     Q    E   H          E
------------------------|-------------------------|
--------------11--9--8--|--9----8-----------------|
------------------------|----------10~--------10--|
------------------------|-------------------------|
------------------------|-------------------------|
------------------------|-------------------------|


   E  E   E  E  E   E  E  E     Q    E   Q.       E  E
-----------------------------|--------------------------|
-------------------11--9--8--|--9----8------------------|
---L--9--10--9--6------------|----------10~------10--9--|
-----------------------------|--------------------------|
-----------------------------|--------------------------|
-----------------------------|--------------------------|


   E  E  E   Q      E  E  E     Q    E   H          E
-----------------------------|-------------------------|
------8--9--11~----11--9--8--|--9----8-----------------|
--10-------------------------|----------10~--------10--|
-----------------------------|-------------------------|
-----------------------------|-------------------------|
-----------------------------|-------------------------|


   E  E   E  E  E   E  E  E      Q    E  Q    E  Q
-----------------------------|-----------8-------9----|
-----------------------8--9--|--11----9-------9-------|
---L--9--10--9--6--10--------|------------------------|
-----------------------------|------------------------|
-----------------------------|------------------------|
-----------------------------|------------------------|


  E   Q    E   Q     Q         W
-----12-------15----13~----|---L----------------|-------------------|
--9--------9---------------|--------------------|-------------------|
---------------------------|--------------------|-------------------|
---------------------------|--------------------|-------------------|
---------------------------|--------------------|-------------------|
---------------------------|--------------------|-------------------|


                                          Q.     Q     E  E  E
-------------------|-------------------|------------------------|
-------------------|-------------------|--------------11--9--8--|
-------------------|-------------------|------------------------|
-------------------|-------------------|------------------------|
-------------------|-------------------|------------------------|
-------------------|-------------------|------------------------|


  Q    E   H          E      E  E   E  E  E   E  E  E
-------------------------|-----------------------------|
--9----8-----------------|-------------------11--9--8--|
----------10~--------10--|---L--9--10--9--6------------|
-------------------------|-----------------------------|
-------------------------|-----------------------------|
-------------------------|-----------------------------|


  Q    E   Q.       E  E      E  E  E   Q      E  E  E
--------------------------|-----------------------------|
--9----8------------------|------8--9--11~----11--9--8--|
----------10~------10--9--|--10-------------------------|
--------------------------|-----------------------------|
--------------------------|-----------------------------|
--------------------------|-----------------------------|


  Q    E   H          E      E  E   E  E  E   E  E  E
-------------------------|-----------------------------|
--9----8-----------------|-----------------------8--9--|
----------10~--------10--|---L--9--10--9--6--10--------|
-------------------------|-----------------------------|
-------------------------|-----------------------------|
-------------------------|-----------------------------|


   Q    E  Q    E  Q       E   Q    E   E   E  E  E
-----------8-------9----|-----12-------15s--6--------|
--11----9-------9-------|--9--------9----------9--8--|
------------------------|----------------------------|
------------------------|----------------------------|
------------------------|----------------------------|
------------------------|----------------------------|


  Q    E   H          E      E   E  E   E  E   E  E  E
-------------------------|------------------------------|
--9----8-----------------|--------------------11--9--8--|
----------10~--------10--|---L--10--9--10--6------------|
-------------------------|------------------------------|
-------------------------|------------------------------|
-------------------------|------------------------------|


  Q    E   Q.       E  E      E  E  E   Q      E  E  E
--------------------------|-----------------------------|
--9----8------------------|------8--9--11~----11--9--8--|
----------10~------10--9--|--10-------------------------|
--------------------------|-----------------------------|
--------------------------|-----------------------------|
--------------------------|-----------------------------|


  Q    E   H          E      E  E   E  E  E   E  E  E
-------------------------|-----------------------------|
--9----8-----------------|-----------------------8--9--|
----------10~--------10--|---L--9--10--9--6--10--------|
-------------------------|-----------------------------|
-------------------------|-----------------------------|
-------------------------|-----------------------------|


   Q    E  Q    E  Q       E   Q    E   Q     Q
-----------8-------9----|-----12-------15----13~----|
--11----9-------9-------|--9--------9---------------|
------------------------|---------------------------|
------------------------|---------------------------|
------------------------|---------------------------|
------------------------|---------------------------|


  W
--L----------------|-------------------||
-------------------|-------------------||
-------------------|-------------------||
-------------------|-------------------||
-------------------|-------------------||
-------------------|-------------------||


----------------------------------------------------------------------------------|
----------------------------------------------------------------------------------|
Bass:

(Capo 1)
     W                   W                   W
G||-------------------|-------------------|-------------------|
D||-------------------|-------------------|-------------------|
A||-------------------|-------------------|-------------------|
E||--0----------------|--0----------------|--3----------------|


  W                   W                   W
-------------------|-------------------|-------------------|
-------------------|-------------------|-------------------|
-------------------|-------------------|-------------------|
--5----------------|--0----------------|--0----------------|


  W                   W                   W
-------------------|-------------------|-------------------|
-------------------|-------------------|-------------------|
-------------------|-------------------|-------------------|
--5----------------|--5----------------|--0----------------|


  W                   W                   W
-------------------|-------------------|-------------------|
-------------------|-------------------|-------------------|
-------------------|-------------------|-------------------|
--0----------------|--3----------------|--5----------------|


  W                   W                   W
-------------------|-------------------|-------------------|
-------------------|-------------------|-------------------|
-------------------|-------------------|-------------------|
--0----------------|--0----------------|--5----------------|


  W                   W                   W
-------------------|-------------------|-------------------|
-------------------|-------------------|-------------------|
-------------------|-------------------|-------------------|
--5----------------|--0----------------|--0----------------|


  W                   W                   W
-------------------|-------------------|-------------------|
-------------------|-------------------|-------------------|
-------------------|-------------------|-------------------|
--3----------------|--5----------------|--0----------------|


  W                   W                   W
-------------------|-------------------|-------------------|
-------------------|-------------------|-------------------|
-------------------|-------------------|-------------------|
--0----------------|--5----------------|--5----------------|


  W                   E  E  E  E  E  E  E  E
-------------------|--------------------------|
-------------------|--------------------------|
-------------------|--------------------------|
--L----------------|--0--0--0--0--0--0--0--0--|


  E  E  E  E  E  E  E  E     S S S S S S S S S S S S S S S S
--------------------------|----------------------------------|
--------------------------|----------------------------------|
--------------------------|----------------------------------|
--0--0--0--0--0--0--0--0--|--0-0-0-0-0-0-0-0-0-0-0-0-0-0-0-0-|


  S S S S S S S S H           Q    Q    Q    Q
---------------------------|----------------------|
---------------------------|----------------------|
---------------------------|----------------------|
--0-0-0-0-0-0-0-0-0--------|--0----0----0----0----|


  Q    Q    Q    Q       Q    Q    Q    Q       Q    Q    Q    Q
----------------------|----------------------|----------------------|
----------------------|----------------------|----------------------|
----------------------|----------------------|----------------------|
--0----0----0----0----|--3----3----3----3----|--5----5----5----5----|


  Q    Q    Q    Q       Q    Q    Q    Q       Q    Q    Q    Q
----------------------|----------------------|----------------------|
----------------------|----------------------|----------------------|
----------------------|----------------------|----------------------|
--0----0----0----0----|--0----0----0----0----|--5----5----5----5----|


  Q    Q    Q    Q       Q    Q    Q    Q       Q    Q    Q    Q
----------------------|----------------------|----------------------|
----------------------|----------------------|----------------------|
----------------------|----------------------|----------------------|
--5----5----5----5----|--0----0----0----0----|--0----0----0----0----|


  Q    Q    Q    Q       Q    Q    Q    Q       Q    Q    Q    Q
----------------------|----------------------|----------------------|
----------------------|----------------------|----------------------|
----------------------|----------------------|----------------------|
--3----3----3----3----|--5----5----5----5----|--0----0----0----0----|


  Q    Q    Q    Q       Q    Q    Q    Q       Q    Q    Q    Q
----------------------|----------------------|----------------------|
----------------------|----------------------|----------------------|
----------------------|----------------------|----------------------|
--0----0----0----0----|--5----5----5----5----|--5----5----5----5----|


  Q
-------|-------||
-------|-------||
-------|-------||
--L----|-------||


Duration Legend
---------------
W - whole
H - half
Q - quarter
E - 8th
S - 16th
T - 32nd
X - 64th
. - note dotted
|-n-|  - n-tuplets


Tablature Legend
----------------
L - tied note
x - dead note
g - grace note
(n) - ghost note
> - accentuded note
NH - natural harmonic
AH - artificial harmonic
TH - tapped harmonic
SH - semi harmonic
PH - pitch harmonic
h - hammer on
p - pull off
b - bend
br - bendRelease
pb - preBend
pbr - preBendRelease
brb - bendReleaseBend
\n/ - tremolo bar dip
\n - tremolo bar dive
-/n - tremolo bar Release up
/n\ - tremolo bar inverted dip
/n - tremolo bar return
-\n - tremolo bar Release down
S - shift slide
s - legato slide
/ -  slide into from below or out of upwards
\ -  slide into from above or out of downwards
~ - vibrato
W - wide vibrato
tr - trill
TP - tremolo picking
T - tapping
S - slap
P - pop
< - fade in
^ - brush up
v - brush down





Comments


Popular Infected Mushroom tabs & chords
Smashing The Opponent Chords
Smashing The Opponent 1 Chords
Smashing The Opponent 2 Chords
Bust A Move Tabs
Dancing With Kadafi Intro Tabs
Heavyweight Tabs
Jeenge Intro Tabs
Poquito Mas Tabs
Stretched Tabs
U R So Fucked Tabs


Song lyrics



↑ Back to top | Tablatures and chords are parodies/interpretations of the original songs. You may use it for private study, scholarship, research or language learning purposes only
© 2014 AZChords.com Contact us | Privacy policy | DMCA | Add/correct tabs | Request tabs | Top 50 tabs