» » »

Infected Mushroom, Bust A Move Tabs (ver.1)

Artists:  A B C D E F G H I J K L M N O P Q R S T U V W X Y Z # 

Bust A Move Tabs (ver.1)

Infected Mushroom Tabs
 Rating:
4/5 (4 votes)
Bust A Move lessons Tabs too difficult? Try these video lessons and learn fast
                -------------------------------------------------------------------------------
                        Bust a Move    -  Infected Mushroom
-------------------------------------------------------------------------------

Tuning: E-Standard

//////////////////////////////////////////////
//                                          //
//  RATING THIS TAB TAKES ABOUT 5 SECONDS   //
//  AND HELPS ME TO IMPROVE MY WORK         //
//                                          //
//////////////////////////////////////////////

[Motive 1] 

(Strumming of course)

    g minor
e|---3---3-3---3-3-3-3---3-3---3-3-3-3---|
B|---3---3-3---3-3-3-3---3-3---3-3-3-3---|
G|---3---3-3---3-3-3-3---3-3---3-3-3-3---|
D|---5---5-5---5-5-5-5---5-5---5-5-5-5---|
A|---5---5-5---5-5-5-5---5-5---5-5-5-5---|
E|---3---3-3---3-3-3-3---3-3---3-3-3-3---|

[Motive 2]

e|---3-----6-----6----|
B|---3-----6-----6----|
G|---3-----6-----6----|
D|---5-----8-----8----|
A|---5-----8-----6----|
E|---3-----6-----6----|

[Motive 3] (5:39)

e|-------------------------------------|
B|-------------------------------------|
G|---5-----------------7---------------|
D|---7---9---10---11-7-7---10---9---6--|
A|---7---9---10---11-7-5---10---7---6--|
E|---5---7---8----9--5-----8----7---4--|

All three Motives are repeated.
 
Martin Messner :D
            
Submit corrections

comments powered by Disqus
↑ Back to top | Infected Mushroom Tabs for Bust A Move. Lyrics for acoustic guitar and electric guitar. Tablatures and chords are parodies/interpretations of the original songs. You may use it for private study, scholarship, research or language learning purposes only