» » »

The Taste Of Regret Tabs (ver.3)

Artists:  A B C D E F G H I J K L M N O P Q R S T U V W X Y Z # 

The Taste Of Regret Tabs (ver.3)

In Fear And Faith
Rating:
4/5 (1 vote)

Hard to play? Try these video lessons and learn fast.
                In Fear and Faith (IFAF)
The Taste Of Regret 
Voyage


Drop D (DADGBE)

"Come Out of Hiding"

E|------------------------------------------------|
B|-----7-7-7------7-7-7------7-7-7-9-9-9-10-10-10-|
G|------------------------------------------------|
D|-4---4-4-4--4---4-4-4--4---4-4-4-6-6-6--7--7--7-|
A|-4----------4----------4------------------------|
D|-4----------4----------4------------------------|

E|-----------------------------------------------------|
B|-----14-14-14------14-14-14------12-12-12------------|
G|-----------------------------------------------------|
D|-0---11-11-11--0---11-11-11--0----9--9--9--000~-000~-|
A|-0-------------0-------------0-------------000~-000~-|
D|-0-------------0-------------0-------------000~-000~-|

Heres the piano part no guitar is played

Next part of the song

E|-------------------------------|------------------------------|
B|-------------------------------|------------------------------|
G|-----------------4-------------|-----------------7---4------4-|
D|-----4---6---7-------7---6---7-|-----4---6---7-----------7----|
A|-------------------------------|------------------------------|
D|-4-4---4---4---4---4---4---4---|-4-4---4---4---4---4---4---4--|
            
Hard to play? Try these video lessons and learn fast. | Correct




comments powered by Disqus
↑ Back to top | Tablatures and chords are parodies/interpretations of the original songs. You may use it for private study, scholarship, research or language learning purposes only