» » »

In Fear And Faith, The Taste Of Regret Tabs (ver.2)

Artists:  A B C D E F G H I J K L M N O P Q R S T U V W X Y Z # 

The Taste Of Regret Tabs (ver.2)

In Fear And Faith Tabs
Rating:
1/5 (1 vote)
The Taste Of Regret lessons Tabs too difficult? Try these video lessons and learn fast
                Artist - In Fear And Faith
Song - The Taste of regret
Tuning - Drop D[DADGBE]





INTRO:



Screaming Part:
[Come out of hiding, show us your face] 
E|------------------------------|
B|-----8-8-8---------8-8-8------|
G|------------------------------|
D|-4~--4-4-4-----4~--4-4-4------| X2
A|-4~------------4~-------------|
D|-4~------------4~-------------|

[Don't be afraid of what they'll say]
E|------------------------------|
B|-----5-5-5---------5-5-5------|
G|------------------------------|
D|-0~--2-2-2-----0~--2-2-2------| X2
A|-0~------------0~-------------|
D|-0~------------0~-------------|

[Just close your eyes it'll all be ok]
E|------------------------------|
B|-----8-8-8---------8-8-8------|
G|------------------------------|
D|-4~--4-4-4-----4~--4-4-4------| X2
A|-4~------------4~-------------|
D|-4~------------4~-------------|

[The damage they've caused, is it worth it all?]
E|------------------------------------------|
B|-----5-5-5---------5-5-5---------5-5-5----|
G|------------------------------------------|
D|-0~--2-2-2-----0~--2-2-2-----0~--2-2-2----|
A|-0~------------0~------------0~-----------|
D|-0~------------0~------------0~-----------|


Piano:


 
Verse:
[What's taken away]
E|---------------------------------------|
B|---------------------------------------|
G|--------------------4------------------|
D|-----4----6-----7---------7----6----7--|
A|---------------------------------------|
D|-44----4----4----4----4----4----4------|
   ..    .    .    .    .    .    .       


[is the price they pay]
E|---------------------------------------|
B|---------------------------------------|
G|--------------------7-----4---------4--|
D|-----4----6-----7--------------7-------|
A|---------------------------------------|
D|-44----4----4----4----4----4----4------|
   ..    .    .    .    .    .    .  

[For goodness sake let it fade away]
E|------------------------------------------------|
B|------------------------------------------------|
G|------------------------------------------------|Im not sure abt this part, but it sounds good
D|------------------------------------------------|
A|-0~----------0~-----------2~---------2~---------|
D|-0~-00--0000-0~-00-0000---2~-22-2222-2~-22-2222-|
      ..  ....    .. ....      .. ....    .. ....

[Let go of the.. ]
E|---------------------------------------|
B|---------------------------------------|
G|--------------------4------------------|
D|-----4----6-----7---------7----6----7--|
A|---------------------------------------|
D|-44----4----4----4----4----4----4------|
   ..    .    .    .    .    .    .       


[ past, that tore you apart]
E|---------------------------------------|
B|---------------------------------------|
G|--------------------7-----4---------4--|
D|-----4----6-----7--------------7-------|
A|---------------------------------------|
D|-44----4----4----4----4----4----4------|
   ..    .    .    .    .    .    .  

[Embrace this chance for a brand new start]
E|------------------------------------------------|
B|------------------------------------------------|
G|------------------------------------------------|
D|------------------------------------------------|
A|-0~----------0~-----------2~---------2~---------|
D|-0~-00--0000-0~-00-0000---2~-22-2222-2~-22-2222-|
      ..  ....    .. ....      .. ....    .. ....

Pre chorus:
[We weren't meant to be one of them, but to live life, love and give.
They can't fool us anymore. We're far too clever.]
E|-------------------------------------------------|
B|-------------------------------------------------|
G|-------------------------------------------------| 
D|--777-7-77-7-777--999-9-99-9-999-----------------|continued...
A|--555-5-55-5-555--777-7-77-7-777-----------------|
D|-------------------------------------------------|


E|----------------------------------------------------------------------|
B|----------------------------------------------------------------------|
G|----------------------------------------------------------------------|
D|-13-13-13--13--13-13--13--13-13-13--14-14-14--14--14-14--14--14-14-14-|X2
A|--9--9--9---9---9--9---9---9--9--9--12-12-12--12--12-12--12--12-12-12-|
D|----------------------------------------------------------------------|

Chorus:

E|------------------------|
B|------------------------|
G|------------------------|
D|--4~~~-7~~~-0~~~-2~~~---| X2
A|--4~~~-7~~~-0~~~-2~~~---|
D|--4~~~-7~~~-0~~~-2~~~---|


Repeat the Screaming part,verse,Pre chorus and chorus


Breakdown Part:

E|---------------------------------------------------------------------|
B|---------------------------------------------------------------------|
G|---------------------------------------------------------------------|
D|--4-------------4-------------4-------------4------------------------| 
A|--4-444-44-444--4-444-44-444--4-------------4-444-44-444-------------|
D|--4-444-44-444--4-444-44-444--4-444-44-444--4-444-44-444-------------|
      ... .. ...    ... .. ...    ... .. ...    ... .. ...
Keep on repeating the breakdown part  till the end
            
Submit corrections

comments powered by Disqus
↑ Back to top | In Fear And Faith Tabs for The Taste Of Regret. Lyrics for acoustic guitar and electric guitar. Tablatures and chords are parodies/interpretations of the original songs. You may use it for private study, scholarship, research or language learning purposes only