» » »

In Extremo, Merseburger Zaubersprueche I Tabs (ver.1)

Artists:  A B C D E F G H I J K L M N O P Q R S T U V W X Y Z # 

Merseburger Zaubersprueche I Tabs (ver.1)

In Extremo Tabs
Rating:
0/5 (0 votes)
Merseburger Zaubersprueche I lessons Tabs too difficult? Try these video lessons and learn fast
                explanation: 
b=bending
\=slide down
/=slide up
x=dead note

this are just basic tabs for this beutiful song, there is a lot more going on 
especially in the live version and the timning is similar to this one, 
but hear yourself ;D
you´ve got to figure out yourself when to play what, but this shouldn´t be any problem
i´m just too lazy to do this for you  ;D


in the silent part there is just bass and ?harfe? 
you start with a big slide with a D power chord

B|14\\\\\\\\\\\\|
G|14\\\\\\\\\\\\|
D|12\\\\\\\\\\\\|

Riff 1

e|-------------------|
B|2------------------|
G|2--5--7---xx-7-xx-7|
D|0--5--7---xx-7-xx-7|
A|---3--5---xx-5-xx-5|
E|-------------------|

Riff 2

e|---------------------|
B|5--5-----------------|
G|5--55-5-7---xx-7-xx-7|
D|3--35-5-7---xx-7-xx-7|
A|----3-3-5---xx-5-xx-5|
E|---------------------|

Riff 3

e|---------------------|
B|5--57----------------|
G|5--57-5-7---xx-7-xx-7|
D|3--35-5-7---xx-7-xx-7|
A|------3-5---xx-5-xx-5|
E|---------------------|

at the end of the song you have to kill the dead notes ;D 
and the last chord (D5) is just played one time and the something like this

B|----7|
G|--7--|
D|5----|
            
Submit corrections

comments powered by Disqus
↑ Back to top | In Extremo Tabs for Merseburger Zaubersprueche I. Lyrics for acoustic guitar and electric guitar. Tablatures and chords are parodies/interpretations of the original songs. You may use it for private study, scholarship, research or language learning purposes only