» » »

Indk, East Coast Rising Tabs (ver.2)

Artists:  A B C D E F G H I J K L M N O P Q R S T U V W X Y Z # 

East Coast Rising Tabs (ver.2)

Indk Tabs
 Rating:
4/5 (4 votes)
East Coast Rising lessons Tabs too difficult? Try these video lessons and learn fast
1
                ----------------------------------------------------------------------------
                             EAST COAST RISING - INDK
----------------------------------------------------------------------------

Tuning:D#

Figure out timing by yourself
Intro
e|------------------------------------------|
B|------------------------------------------|
G|-14--9--7----14--16--14-------------------|
D|-14--9--7----14---------------------------|
A|-12--7--5----12--14--12-------------------|
E|------------------------------------------|

Verse
e|-5-5-5-5-5-7-7-7-7-5-5-5-5-5-5-5-5----|
B|-5-5-5-5-5-9-9-9-9-7-7-7-7-7-7-7-7----|
G|-6-6-6-6-6-9-9-9-9-7-7-7-7-7-7-7-7----|  X4
D|-7------------------------------------|
A|-7------------------------------------|
E|-5------------------------------------|

Chorus
e|------------------------------------------------------|
B|------------------------------------------------------|
G|-14--9--7----14--16--14----14--9--7----14--16--19-----|
D|-14--9--7----14------------14--9--7----14-------------|
A|-12--7--5----12--14--12----12--7--5----12--14--17-----|
E|------------------------------------------------------|

| /  slide up
| \  slide down
| h  hammer-on
| p  pull-off
| ~  vibrato
| +  harmonic
| x  Mute note
============================================================================
            
Submit corrections

comments powered by Disqus
↑ Back to top | Indk Tabs for East Coast Rising. Lyrics for acoustic guitar and electric guitar. 1 Tablatures and chords are parodies/interpretations of the original songs. You may use it for private study, scholarship, research or language learning purposes only