» » »

Indk, East Coast Rising Bass tabs (ver.1)

Artists:  A B C D E F G H I J K L M N O P Q R S T U V W X Y Z # 

East Coast Rising Bass tabs (ver.1)

Indk Tabs
 Rating:
4/5 (4 votes)
East Coast Rising lessons Tabs too difficult? Try these video lessons and learn fast
                Indk


Intro: x2

Gb:-----------------------------------------|
Db:-7-7-7-7-7-7-7-7-7-7---------------------|
Ab:---------------------7-7-7-7-7-7-7-7-7-7-|
Eb:-----------------------------------------|

Gb:-------------------------------------|
Db:-------------------------------------|
Ab:-5-5-5-5-5-5-5-5-5-5-5-5-5-5-5-5-5-5-|
Eb:-------------------------------------|

Verse: x2

Gb:---6-6-7-7-9-9-----------------------------7-7-5-5-4-4-2-2-|
Db:-7---------------9-9-7-7-6-6---4-4-5-5-7-7-----------------|
Ab:---------------7-------------5-----------------------------|
Eb:-----------------------------------------------------------|

Gb:---6-6-7-7-9-9---------------------------------------------|
Db:-7---------------9-9-7-7-6-6---4-4-5-5-7-7-5-5-4-4-2-2-----|
Ab:---------------7-------------5-------------------------5-5-|
Eb:-----------------------------------------------------------|

Chorus: x4

Gb:-----------------------------------------|
Db:-7-7-7-7-7-7-7-7-7-7---------------------|
Ab:---------------------7-7-7-7-7-7-7-7-7-7-|
Eb:-----------------------------------------|

Gb:-------------------------------------|
Db:-------------------------------------|
Ab:-5-5-5-5-5-5-5-5-5-5-5-5-5-5-5-5-5-5-|
Eb:-------------------------------------|

Verse:

Gb:---------9-7--------------------------------------------------|
Db:-7---7-7-----9-----------9-7-------------7-5------------7-5---|
Ab:-----------------7---7-7-----9----5--5-5-----5---5--5-5-----5-| this part x2
Eb:--------------------------------------------------------------|

then...

Gb:---6-6-7-7-9-9-----------------------------7-7-5-5-4-4-2-2-|
Db:-7---------------9-9-7-7-6-6---4-4-5-5-7-7-----------------|
Ab:---------------7-------------5-----------------------------|
Eb:-----------------------------------------------------------| 	 this part x1

Gb:---6-6-7-7-9-9---------------------------------------------|
Db:-7---------------9-9-7-7-6-6---4-4-5-5-7-7-5-5-4-4-2-2-----|
Ab:---------------7-------------5-------------------------5-5-|
Eb:-----------------------------------------------------------|


Chorus: x4

Bridge: x4

Gb:-------------------------------------------------------------|
Db:-7-7-7-7-7-7-7-7---------------------------------------------|
Ab:-----------------7-7-7-7-7-7-7-7-5-5-5-5-5-5-5-5-5-5-5-5-5-5-|
Eb:-------------------------------------------------------------|

Chorus: x4

Outro: x2

Gb:-----------------------------------------|
Db:-7-7-7-7-7-7-7-7-7-7---------------------|
Ab:---------------------7-7-7-7-7-7-7-7-7-7-|
Eb:-----------------------------------------|

Gb:--------------------------------------|
Db:--------------------------------------|
Ab:-5-5-5-5-5-5-5-5-5-5-5-5-5-5-5-5-5-5--|
Eb:--------------------------------------|
            
Submit corrections

comments powered by Disqus
↑ Back to top | Indk Bass for East Coast Rising. Lyrics for acoustic guitar and electric guitar. Tablatures and chords are parodies/interpretations of the original songs. You may use it for private study, scholarship, research or language learning purposes only