>
 >
Gone 4 Good 1

Gone 4 Good 1 Guitar Tabs

Impossibles - Gone 4 Good 1 chords, tabs, tablatures, lyrics

Guitar lessons | Add/correct | Request | Top 50 tabs Artists:  A B C D E F G H I J K L M N O P Q R S T U V W X Y Z 0-9

Gone 4 Good 1 Guitar Tabs – Impossibles

CD, Sheet music, Poster

Do you like Gone 4 Good 1? Share with your friends now
TabsTabs v2
Intro:

|-----------------------------------------------
|-----------------------------------------------  \  /  |   |
|-----------------------------------------------   \/   |___|
|------------------4-4-4-------5-5-5-------9-7-5   /\       |
|------5-5-5-2-2-2-2-2-2-3-3-3-3-3-3-5-5-5------  /  \      |
|3-3-3-3-3-3------------------------------------            

Time to turn outside in

|------------------------|
|------------------------|
|------------------------|
|5------4-----------2----|
|------------------------|
|------------------------|

Fall breaks down to begin again

|------------------------|
|------------------------|
|------------------------|
|5-5-5-5-5-5-7-7-7-7-7-7-|
|3-3-3-3-3-3-5-5-5-5-5-5-|
|------------------------|

Shivering hands can not hold

|-----------------------|
|-----------------------|
|-----------------------|
|5------4-----------2---|
|-----------------------|
|-----------------------|

Longing can not keep us from the cold

|------------------------|
|------------------------|
|------------------------|
|5-5-5-5-5-5-7-7-7-7-7-7-|
|3-3-3-3-3-3-5-5-5-5-5-5-|
|------------------------|

we teach ourselves to live without

|-------------------------------|
|-------------------------------|
|-------------------------------|
|5-5-5-5-4-4-4-4-2--2-2-2-2-2-2-|
|7-7-7-7-5-5-5-5-3--3-3-3-3-3-3-|
|-------------------------------|

the things we once thought we'd never give up

|--------------------------------|
|--------------------------------|
|--------------------------------|
|5-5-5-5-4-4-4-4-2-2-2-2-4-4-4-4-|
|7-7-7-7-5-5-5-5-3-3-3-3-5-5-5-5-|
|--------------------------------|

and you take half my heart
forever yours to tear apart

|-------- |--------|--------|---------|
|-------- |--------|--------|---------| \  /
|-------- |--------|--------|---------|  \/    2
|-------- |-4     -|-5     -|-7     --|  /\
|-5       |-2 X 12-|-3 X 12-|-5 X 12--| /  \
|-3 X 12  |--------|--------|---------|

|---------------------------------------------------------|
|---------------------------------------------------------|  \  /
|-----------------------------------------------   \/   2-|
|------------------4-4-4-------5-5-5-------9-7-5   /\-----|
|------5-5-5-2-2-2-2-2-2-3-3-3-3-3-3-5-5-5----------------|  /  \
|3-3-3-3-3-3----------------------------------------------|

taking turns, deconstruct

|-----------------------|
|-----------------------|
|-----------------------|
|5------4-----------2---|
|-----------------------|
|-----------------------|

recreate, redesign, recorrupt

|------------------------|
|------------------------|
|------------------------|
|5-5-5-5-5-5-7-7-7-7-7-7-|
|3-3-3-3-3-3-5-5-5-5-5-5-|
|------------------------|

Shivering hands can not hold

|-----------------------|
|-----------------------|
|-----------------------|
|5------4-----------2---|
|-----------------------|
|-----------------------|

Longing can not keep us from the cold

|------------------------|
|------------------------|
|------------------------|
|5-5-5-5-5-5-7-7-7-7-7-7-|
|3-3-3-3-3-3-5-5-5-5-5-5-|
|------------------------|

we teach ourselves to live without

|-------------------------------|
|-------------------------------|
|-------------------------------|
|5-5-5-5-4-4-4-4-2--2-2-2-2-2-2-|
|7-7-7-7-5-5-5-5-3--3-3-3-3-3-3-|
|-------------------------------|

the things we once thought we'd never give up

|--------------------------------|
|--------------------------------|
|--------------------------------|
|5-5-5-5-4-4-4-4-2-2-2-2-4-4-4-4-|
|7-7-7-7-5-5-5-5-3-3-3-3-5-5-5-5-|
|--------------------------------|

and you take half my heart
forever yours to tear apart

|-------- |--------|--------|---------|
|-------- |--------|--------|---------| \  /
|-------- |--------|--------|---------|  \/    2
|-------- |-4     -|-5     -|-7     --|  /\
|-5       |-2 X 12-|-3 X 12-|-5 X 12--| /  \
|-3 X 12  |--------|--------|---------|

Solo :

|----------------------------------------------------------------------------------|
|-8^-7v-----------------------------------------------------------5---5-7-5-7-8v---|
|--------4-5v-5-5-5-4------4-4^-5^-4-----4-4^-5-4---4/7-5-4-5-7-4---7--------------|
|---------------------7--5-----------5-2----------5--------------------------------|
|----------------------------------------------------------------------------------|
|----------------------------------------------------------------------------------|

|-------------------------------------------------------------|
|-----------------------------------------------  \  /  |  ---|
|-----------------------------------------------   \/   |__---|
|------------------4-4-4-------5-5-5-------9-7-5   /\      ---|
|------5-5-5-2-2-2-2-2-2-3-3-3-3-3-3-5-5-5------  /  \     ---|
|3-3-3-3-3-3--------------------------------------------------|

|---
|---
|---
|-5-
|-5-
|-3-





Comments


Popular Impossibles tabs & chords
Always Have, Always Will Bass Tabs
Always Have, Always Will 1 Bass Tabs
(Never) Say Goodbye Tabs
Always Have, Always Will Tabs
Connecticut Intro Tabs
Enter/Return Tabs
Face-First! Tabs
Fatboy Tabs
Hey, You Kids! Tabs
Priorities Intact Tabs


Song lyrics



↑ Back to top | Tablatures and chords are parodies/interpretations of the original songs. You may use it for private study, scholarship, research or language learning purposes only
© 2014 AZChords.com Contact us | Privacy policy | DMCA | Add/correct tabs | Request tabs | Top 50 tabs