>
 >
Gone 4 Good

Gone 4 Good Guitar Tabs

Impossibles - Gone 4 Good chords, tabs, tablatures, lyrics

Guitar lessons | Add/correct | Request | Top 50 tabs Artists:  A B C D E F G H I J K L M N O P Q R S T U V W X Y Z 0-9

Gone 4 Good Guitar Tabs – Impossibles

CD, Sheet music, Poster

Do you like Gone 4 Good? Share with your friends now
TabsTabs v2

Band: The Impossibles

* = muted
pm = palm muted
b= 1/2 step bend
r= release bend

Intro (6/8)

E:-------------------------------|
B:-------------------------------|
G:---------444444-555555-777777--|
D:--555555-444444-555555-777777--|
A:--555555-222222-333333-555555--|
E:--333333-----------------------|

Verse
      (3/8)    |    (6/8)
E:-----------------------------|
B:-----------------------------|
G:--12--11--12--555555-777777--|
D:--------------555555-777777--|
A:--10---9---7--333333-555555--|
E:-----------------------------|

Pre Chorus (6/8)

E:--------------------------------------------------------------|
B:--------------------------------------------------------------|
G:----------7777-77-5-55-5-5-5---------7777-77--5-5-55--7-7-77--|
D:--2222-22-7777-77-5-55-5-5-5-2222-22-7777-77--5-5-55--7-7-77--|
A:--2222-22-5555-55-3-33-3-3-3-2222-22-5555-55--3-3-33--5-5-55--|
E:--0000-00--------------------0000-00--------------------------|
         pm      pm                 pm      pm

Chorus (6/8)

E:----------------------------------------------------|
B:----------------------------------------------------|
G:--------------4-4-444-4-4-5-5-555-5-5-7-7-777-7-7---|
D:--5-5-555-5-5-4-4-444-4-4-5-5-555-5-5-7-7-777-7-7---|
A:--5-5-555-5-5-2-2-222-2-2-3-3-333-3-3-5-5-555-5-5---|
E:--3-3-333-3-3---------------------------------------|

---------------------------------------------------------|
---------------------------------------------------------|
-------------4-4-444-4-4-5-5-555-5-5-7-7-777-7-7-888888--|
-5-5-555-5-5-4-4-444-4-4-5-5-555-5-5-7-7-777-7-7-888888--|
-5-5-555-5-5-2-2-222-2-2-3-3-333-3-3-5-5-555-5-5-666666--|
-3-3-333-3-3---------------------------------------------|

Solo (probably not 100% correct but close enough)

E:---------------------------------------------------------------------------------------|
B:-------8-7--------------------------------------------------------------8--------------|
G:-----------4-5--4-2-0-2-4-4(b)(r)-2---2-4-4(b)(r)-2-5-4-5-7-5-9-7-11-9-11(b)-let ring--|
D:------------------------------------2--------------------------------------------------|
A:---------------------------------------------------------------------------------------|
E:---------------------------------------------------------------------------------------|

Solo - Rhythm Guitar

E:-------------------------------------------------------------------------------------|
B:-------------------------------------------------------------------------------------|
G:-----------4-5--------------------------------------------2----5--7------------------|
D:-2222------4-5------5---------------2---------------------2----5--7-----go to intro--|
A:-2222------2-3------5---------------2---------------------0----3--5------------------|
E:-0000---------------3---------------0------------------------------------------------|

Song Order

Intro x 4
Verse x 2
Pre Chorus
Chorus
Intro x 4
Verse x 2
Pre Chorus
Chorus
Solo
Intro x 4

End on G





Comments


Popular Impossibles tabs & chords
Always Have, Always Will Bass Tabs
Always Have, Always Will 1 Bass Tabs
Eightball Bass Tabs
Eightball 1 Bass Tabs
(Never) Say Goodbye Tabs
(Never) Say Goodbye 1 Tabs
Connecticut Intro Tabs
Eightball Tabs
Face-First! Tabs
Frances Tabs


Song lyrics



↑ Back to top | Tablatures and chords are parodies/interpretations of the original songs. You may use it for private study, scholarship, research or language learning purposes only
© 2014 AZChords.com Contact us | Privacy policy | DMCA | Add/correct tabs | Request tabs | Top 50 tabs