» » »

Impending Doom, More Than Conquerors Tabs (ver.3)

Artists:  A B C D E F G H I J K L M N O P Q R S T U V W X Y Z # 

More Than Conquerors Tabs (ver.3)

Impending Doom Tabs
Rating:
0/5 (0 votes)
Hard to play? Try these video lessons and learn fast.
                Hey wats up guys, this is my first tab so i hope i did it right so yall can benefit from it.
 This song is kinda fast pace so you might wanna try out playing it slow first and 
then build up speed as you go.This song also has one of the best breakdowns that i 
have ever heard.

/-slide
.-palm mute
b-bend

Intro/Verse-(0:00-0:38)
 
C :---------------------------|(x8)
G :---------------------------|The second guitar kicks in on the 3rd time.
D#:---------------------------|
A#:-4-1-2--4-2-1-2--4-2-1-0-1-|
F#:-4-1-2--4-2-1-2--2-2-1-0-1-|
A#:-4-1-2--4-2-1-2----2-1-0-1-|
    . .    . . .          .

C :----------------------------|(x4)
G :----------------------------|
D#:----------------------------|
A#:----------------------------|
F#:------------------2---------|
A#:-4-1-2b--4-2-1-2b---2-1-0-1-|

C :---------------------------|(x4)
G :---------------------------|
D#:---------------------------|
A#:-4-1-2--4-2-1-2--4-2-1-0-1-|
F#:-4-1-2--4-2-1-2--2-2-1-0-1-|
A#:-4-1-2--4-2-1-2----2-1-0-1-|
    . .    . . .          .

Post Verse-(0:39-0:58)

C :-------------|(x2)
G :-------------|
D#:-------------|
A#:-0~~1~~-33-1-|
F#:-0~~1~~-11-1-|
A#:-0~~1~~----1-|

C :-----------------------|(x2)
G :-----------------------|on the second time don't play the last 1 chord.
D#:-----------------------|
A#:-0~--------1~-----33-1-|
F#:-0~-000000-1~-111-11-1-|
A#:-0~-000000-1~-111----1-|
       ......    ...

Breakdown-(0:59-1:21)

C :-----------------|(x5)
G :-----------------|the second guitar kicks in on the second time around.
D#:-----------------|
A#:-7777-77-777-----|
F#:-7777-77-777--4--|
A#:-8888-88-888---5-|
    .... .. ...

C :-------------|(x4)                        |----|
G :-------------|but on the fourth time play |----|at the end
D#:-------------|                            |----|
A#:-7777-77-777-|                            |----|
F#:-7777-77-777-|                            |-4--|
A#:-8888-88-888-|                            |--5-|
    .... .. ...

Pre-Verse-(1:22-1:23)

First Guitar                     Second Guitar
C :---------------------------|  C :---------------------------|
G :---------------------------|  G :---------------------------|
D#:---------------------------|  D#:---------------------------|
A#:-4-1-2--4-2-1-2--4-2-1-0-1-|  A#:-4-1-2-----------4-2-1-0-1-|
F#:-4-1-2--4-2-1-2--2-2-1-0-1-|  F#:-4-1-2-----------2-2-1-0-1-|
A#:-4-1-2--4-2-1-2----2-1-0-1-|  A#:-4-1-2-------------2-1-0-1-|
    . .    . . .          .          . .                   .

Verse-(1:24-1:52)

C :---------------------------|(x4)
G :---------------------------|
D#:---------------------------|
A#:-4-1-2--4-2-1-2--4-2-1-0-1-|
F#:-4-1-2--4-2-1-2--2-2-1-0-1-|
A#:-4-1-2--4-2-1-2----2-1-0-1-|
    . .    . . .          .

C :----------------------------|(x4)
G :----------------------------|
D#:----------------------------|
A#:----------------------------|
F#:------------------2---------|
A#:-4-1-2b--4-2-1-2b---2-1-0-1-|

C :---------------------------|(x4)
G :---------------------------|
D#:---------------------------|
A#:-4-1-2--4-2-1-2--4-2-1-0-1-|
F#:-4-1-2--4-2-1-2--2-2-1-0-1-|
A#:-4-1-2--4-2-1-2----2-1-0-1-|
    . .    . . .          .

Post Verse-(1:53-2:14)

C :-------------|(x2)
G :-------------|
D#:-------------|
A#:-0~~1~~-33-1-|
F#:-0~~1~~-11-1-|
A#:-0~~1~~----1-|

C :-----------------------|
G :-----------------------|
D#:-----------------------|
A#:-0~--------1~-----33-1-|
F#:-0~-000000-1~-111-11-1-|
A#:-0~-000000-1~-111----1-|
       ......    ...

C :-------------------------|this part flows into the bridge
G :-------------------------|
D#:-------------------------|
A#:-0~--------1~-111-33-1~~-|
F#:-0~-000000-1~-111-11-1~~-|
A#:-0~-000000-1~-111----1~~-|
       ......    ...

Bridge/Breakdown-(2:15-3:26)

First Guitar                                      Second Guitar
C :-11111111(x2)-00000000-----|play till start of C :---------|(x4)
G :-55555555-----44444444(x2)-|breakdown          G :---------|   
D#:-(slowly bend 5 and 4)-|                       D#:---------|   
A#:-----------------------|                       A#:-2-----1-|    
F#:-----------------------|                       F#:-2-000-1-|    
A#:-----------------------|                       A#:-2-000-1-|
                                                        ...

Second Guitar(first guitar is still playing the backing to the bridge)

C :-----------------------------------------------------------|(x2)
G :-----------------------------------------------------------|
D#:-----------------------------------------------------------|
A#:---------------------------------------------------000-000-|
F#:---------------------------4-----------------------000-000-|
A#:-0---0---1b-0-1b-0-0-1b-0---1b-0-1b-0-1b-0-0-1b-0--111-111-|
                                                      ... ...

Now the breakdown starts

C :---------------------------------------------------|(x4)
G :---------------------------------------------------|
D#:---------------------------------------------------|
A#:-------------------------------------------000-000-|
F#:-------------------4-----------------------000-000-|
A#:-1b-0-1b-0-0-1b-0---1b-0-1b-0-1b-0-0-1b-0--111-111-|
                                              ... ...

This is played on the fifth time
                                            then the guitars alternate this
C :------------------------------------------| once|-----------|
G :------------------------------------------|     |-----------|
D#:------------------------------------------|     |-----------|
A#:------------------------------------------|     |-0000-0000-|
F#:-------------------4----------------------|     |-0000-0000-|
A#:-1b-0-1b-0-0-1b-0---1b-0-1b-0-1b-0-0-1b-0-|     |-1111-1111-|
                                                     .... ....

C :---------------------------|(x4)
G :---------------------------|
D#:---------------------------|
A#:-0000-0000-000000-0-0-0000-|
F#:-0000-0000-000000-0-0-0000-|
A#:-1111-1111-111111-1-1-1111-|
    .... .... ...... . . ....

Pre-Outro-(3:27-3:54)

Second Guitar
C :---------------|(x3)   then|----------------| 
G :---------------|           |----------------|
D#:---------------|           |----------------|
A#:---------------|           |----------------|
F#:------------1--|           |------------1/4-|
A#:-2b~~~1~~~-1-0-|           |-2b~~~1~~~-1----|

C :-----------------|(x3) then|----------------|
G :-----------------|         |----------------|
D#:-----------------|         |----------------|
A#:-----------------|         |----------------|
F#:------------1----|         |------------1/4-|
A#:-2b~~~1~~~-1-1-0-|         |-2b~~~1~~~-1----|

(first guitar plays the brigde again until the outro)

Outro-(3:55-4:26)

C :----------------------------------------------------|(x4)
G :----------------------------------------------------|
D#:----------------------------------------------------|
A#:-0000-0000-000000-0-0-0000--0000-0000-000000-0-0----|
F#:-0000-0000-000000-0-0-0000--0000-0000-000000-0-0----|
A#:-1111-1111-111111-1-1-1111--1111-1111-111111-1-1-4b-|
    .... .... ...... . . ....  .... .... ...... . .

C :---------|
G :---------|
D#:---------|
A#:-000-000-|
F#:-000-000-|
A#:-111-111-|
    ... ...


    
            

comments powered by Disqus
↑ Back to top | Impending Doom Tabs for More Than Conquerors. Lyrics for acoustic guitar and electric guitar. Tablatures and chords are parodies/interpretations of the original songs. You may use it for private study, scholarship, research or language learning purposes only