» » »

Impending Doom, More Than Conquerors Tabs (ver.1)

Artists:  A B C D E F G H I J K L M N O P Q R S T U V W X Y Z # 

More Than Conquerors Tabs (ver.1)

Impending Doom Tabs
 Rating:
4/5 (8 votes)
More Than Conquerors lessons Tabs too difficult? Try these video lessons and learn fast
1
                -------------------------------------------------------------------------------
-------------------------------------------------------------------------------

Tuning: DROP A

0:00-0:40; 1:22-1:55

B|-------------------------|-----------------------|
F#-------------------------|-----------------------|
D|-------------------------|-----------------------|
A|-4-1-2-4-2-1-2-4-2-1-0-1-|-----------------------|
E|-4-1-2-4-2-1-2-2-2-1-0-1-|--------------2--------|
A|-4-1-2-4-2-1-2---2-1-0-1-|-4-1-2-4-2-1-2-2-1-0-1-|

0:40-1:00; 1:55-2:15

B|-----------|----------------------|
F#-----------|----------------------|
D|-----------|----------------------|
A|-1-2-4-4-2-|-1--------2-----4-4-2-|
E|-1-2-2-2-2-|-1-111111-2-222-2-2-2-|
A|-1-2-----2-|-1-111111-2-222-----2-|

1:00-1:22

B|-----------------|-------------|
F#-----------------|-------------|
D|-----------------|-------------|
A|-7777-77-777-----|-7777-77-777-|
E|-7777-77-777-4---|-7777-77-777-|
A|-8888-88-888---5-|-8888-88-888-|

2:17-2:28

B|-1-0-|---------|
F#-5-4-|---------|
D|-----|---------|
A|-----|-2-000-1-|
E|-----|-2-000-1-|
A|-----|-2-000-1-|

2:28-3:15

B|-------------------------------------------------|
F#-------------------------------------------------|
D|-------------------------------------------------|
A|-----------------------------------------000-000-|
E|------------------4----------------------000-000-|
A|-1b-0-1b-0-0-1b-0--1b-0-1b-0-1b-0-0-1b-0-111-111-|

3:15-3:30; 3:58-4:27

B|-----------------------------|--------------------------|
F#-----------------------------|--------------------------|
D|-----------------------------|--------------------------|
A|-0000-0000-00000000-0-0-0000-|-0000-0000-00000000-0-0---|
E|-0000-0000-00000000-0-0-0000-|-0000-0000-00000000-0-0---|
A|-1111-1111-11111111-1-1-1111-|-1111-1111-11111111-1-1-4-|

3:30-3:58

B|---------------------------------------|
F#---------------------------------------|
D|---------------------------------------|
A|---------------------------------------|
E|-------1--------1--------1---------1/4-|
A|-2b-1-1-0-2b-1-1-0-2b-1-1--0-2b-1-1----|


| /  slide up
| \  slide down
| h  hammer-on
| p  pull-off
| ~  vibrato
| +  harmonic
| x  Mute note
| b bend
===============================================================================
            
Submit corrections

comments powered by Disqus
↑ Back to top | Impending Doom Tabs for More Than Conquerors. Lyrics for acoustic guitar and electric guitar. 1 Tablatures and chords are parodies/interpretations of the original songs. You may use it for private study, scholarship, research or language learning purposes only