» » »

I Mother Earth, Like The Sun Tabs (ver.3)

Artists:  A B C D E F G H I J K L M N O P Q R S T U V W X Y Z # 

Like The Sun Tabs (ver.3)

I Mother Earth Tabs
 Rating:
3.6/5 (5 votes)
Like The Sun lessons Tabs too difficult? Try these video lessons and learn fast
1
                By Alex Pavlov

Come on people, doesn't anyone like this song? I was getting p**sed that no one would tab this becuase they were too lazy or just couldn't do it. It's an awesome solo, a great song, and it works just fine for me, so don't use it if you don't like it, but good luck finding another one that's better. Peace.

p- pull-off
h- hammer-on
^- bend
~- let ring
/- slide




E---------------------------------------------------------------------------------|
B-----15-15-----15-15-----15--14-14-----14-14-----14^-----------------------------|
G-11---------11---------11-----------11--------11---------------------------------|
D---------------------------------------------------------------------------------|
A---------------------------------------------------------------------------------|
E---------------------------------------------------------------------------------|

E---------------------------------------------------------------------------------|
B-14p13p12/10-10h12^---------------------------------------12---------------------|
G----------------------------------------------------11---------------------------|
D------------------------------12/14-12-12/14/11p12-----12------------------------|
A---------------------------------------------------------------------------------|
E---------------------------------------------------------------------------------|

E-12h14p12--10--------------12h14p12--10------------------------------------------|
B--------------------7/10h12---------------------7/10h12/15-15~-------------------|
G---------------------------------------------------------------------------------|
D---------------------------------------------------------------------------------|
A---------------------------------------------------------------------------------|
E---------------------------------------------------------------------------------|
            
Submit corrections

comments powered by Disqus
↑ Back to top | I Mother Earth Tabs for Like The Sun. Lyrics for acoustic guitar and electric guitar. 1 Tablatures and chords are parodies/interpretations of the original songs. You may use it for private study, scholarship, research or language learning purposes only