» » »

I Mother Earth, Like The Sun Tabs (ver.1)

Artists:  A B C D E F G H I J K L M N O P Q R S T U V W X Y Z # 

Like The Sun Tabs (ver.1)

I Mother Earth Tabs
 Rating:
4/5 (8 votes)
Like The Sun lessons Tabs too difficult? Try these video lessons and learn fast
                
Tune to standard B

Riff
b---------------------------------------------------------|
Gb--------------------------------------------------------|
D--------9-----11--11/12------9-----11--11-/12------------|
A---7/9-----9--------------9-----9------------------------|
E---------------------------------------------------------|
B---------------------------------------------------------|

(continued)
b---------------------------------------------------------|
Gb--------------------------------------------------------|
D-------9-----11--12--------------------------------------|
A---10-----9----------------------------------------------|
E---------------------------------------------------------|
B---------------------------------------------------------|


Verse
b---0--0-0-0---0-0-0--0-0--0----0-0-0---0-0-0--0-0--------|
Gb--8--8-8-8---8-8-8--8-8--8\3--3-3-3---3-3-3--3-3--------|
D---9--9-9-9---9-9-9--9-9--9\4--4-4-4---4-4-4--4-4--------|
A---9--9-9-9---9-9-9--9-9--9\4--4-4-4---4-4-4--4-4--------|
E---7--7-7-7---7-7-7--7-7--7\2--2-2-2---2-2-2--2-2--------|
B---------------------------------------------------------|

(continued)
b---0--0-0-0---0-0-0--0-0---0--0-0-0---0-0-0--0-0---------|
Gb--5--5-5-5---5-5-5--5-5---0--0-0-0---0-0-0--0-0---------|
D---5--5-5-5---5-5-5--5-5---7--7-7-7---7-7-7--7-7---------|
A---5--5-5-5---5-5-5--5-5---5--5-5-5---5-5-5--5-5---------|
E---3--3-3-3---3-3-3--3-3---3--3-3-3---3-3-3--3-3---------|
B---------------------------------------------------------|

(continued)
b---0--0-0-0---0-0-0--0-0--0----0-0-0---0-0-0--0-0--------|
Gb--8--8-8-8---8-8-8--8-8--8\3--3-3-3---3-3-3--3-3--------|
D---9--9-9-9---9-9-9--9-9--9\4--4-4-4---4-4-4--4-4--------|
A---9--9-9-9---9-9-9--9-9--9\4--4-4-4---4-4-4--4-4--------|
E---7--7-7-7---7-7-7--7-7--7\2--2-2-2---2-2-2--2-2--------|
B---------------------------------------------------------|

(continued)
b---0--0-0-0---0-0-0--0-0---0--0-0-0----------------------|
Gb--5--5-5-5---5-5-5--5-5---0--0-0-0----------------------|
D---5--5-5-5---5-5-5--5-5---7--7-7-7-------8-8-8----------|
A---5--5-5-5---5-5-5--5-5---5--5-5-5--5/8--8-8-8----------|
E---3--3-3-3---3-3-3--3-3---3--3-3-3--3/6--6-6-6----------|
B---------------------------------------------------------|


Chorus
b----------0----------3----------2----------3------3------|
G----------0----------3---3--3-3-3----------0------0------|
D---------------------0---2--2-2-2---0--0-0-0--0-0-0------|
A---2--2-2-2---0--0-0-----0--0-0-0---2--2-2-2--2-2-2------|
E---2--2-2-2---2--2-2----------------3--3-3-3--3-3-3------|
B---0--0-0-0---3--3-3-------------------------------------|


Verse 2 overlayed notes
b---------------------------------------------------------|
G---7~~------11-12----------------------------------------|
D---------------------12~~--------------------------------|
A---------------------------------------------------------|
E---------------------------------------------------------|
B---------------------------------------------------------|

(continued)
b----------14-----------------------------12~~~-----------|
G--------16----------------------12~-(11)-----------------|
D-----16--------------------------------------------------|
A---------------------------------------------------------|
E---------------------------------------------------------|
B---------------------------------------------------------|


Riff 2
b---------------------------------------------------------|
G---10b12b10------------10b12b10------------10b12b10------|
D-------------12------------------12------------------12--|
A-----------------12------------------12------------------|
E---------------------------------------------------------|
B---------------------------------------------------------|

(continued)
b---------------------------------------------------------|
Gb--------------------------------------------------------|
D-------------12------------------------------------------|
A---12-/-14-----------------------------------------------|
E---------------------------------------------------------|
B---------------------------------------------------------|


Bridge 1
b----------------------0-----------------------0----------|
Gb---------------------0-----------------------0----------|
D----------------------0-----------------------0----------|
A---------------2-2-2--2----------------2-2-2--2----------|
E---------------2-2-2--2----------------2-2-2--2----------|
B--5-3-0-5-3-0--0-0-0--0---5-3-0-5-3-0--0-0-0--0----------|


Solo
b---/-15--15------15--15------15--15---14--14-----14--14--|
Gb-------------12----------12------------------12---------|
D---------------------------------------------------------|
A---------------------------------------------------------|
E---------------------------------------------------------|
B---------------------------------------------------------|

(continued)
b------14-15-14---12h15p14p12------12v--------------------|
Gb--12------------------------h15-------------------------|
D----------------------------------------12/14--12--------|
A---------------------------------------------------------|
E---------------------------------------------------------|
B---------------------------------------------------------|

(continued)
b--------------------------12^---17/-19---17---15---------|
Gb------------------12------------x--------x----x---15----|
D---12h14---11--12------14-------14/-16---14---12----x----|
A---------------------------------------------------12----|
E---------------------------------------------------------|
B---------------------------------------------------------|

(continued)
b---------17/-19---17---15-------------15---15~---\-------|
Gb--17-----x--------x----x---15---17----x-----------------|
D----x----14/-16---14---12----x----x---12-----------------|
A---14-----------------------12---14----------------------|
E---------------------------------------------------------|
B---------------------------------------------------------|


Bridge 2 (Guitar 1)
b---------------------------------------------------------|
Gb------------------------------3-------------------------|
D------------11-------------------------------------------|
A--------12------------------2---------------4------------|
E---7/9-------------------3---------------2---------------|
B--------------------------------------0------------------|

(continued)
b---------------------------------------------------------|
Gb------------------------------3-------------------------|
D------------11-------------------------------------------|
A--------12------------------2----------------------------|
E---7/9-------------------3-------------------------------|
B---------------------------------------------------------|


Fill 2 (Guitar 2)
b---------------------------------------------------------|
Gb--------------------------------------------------------|
D---------------12-12/14----------------------------------|
A-------------------------12--/-14------------------------|
E---------------------------------------------------------|
            
Submit corrections

comments powered by Disqus
↑ Back to top | I Mother Earth Tabs for Like The Sun. Lyrics for acoustic guitar and electric guitar. Tablatures and chords are parodies/interpretations of the original songs. You may use it for private study, scholarship, research or language learning purposes only