» » »

Sons Of Northern Darkness Tabs (ver.1)

Artists:  A B C D E F G H I J K L M N O P Q R S T U V W X Y Z # 

Sons Of Northern Darkness Tabs (ver.1)

Immortal
Rating:
0/5 (0 votes)

Hard to play? Try these video lessons and learn fast.
                Immortal - "Sons Of Northern Darkness"
Music by Abbath and Horgh





Tablature Notation
------------------
..  - palm mute                 /  - slide up to
\  - slide down to              ~  - vibrato
h  - hammer on                  b  - bend
p  - pull off                   Suffixes for bend
ph - pinch harmonic             f - full bend    h - half bend
*  - see comment                r - release      t - tap bend
X  - percussion mute            ~ - vibrato bend
@  - slight palm mute           () - ghost note, sustained note
"  - tremolo pick




Tune Down One Step



Riff A.1
|-----------------------------------|Gtr1&2
|------8"--------8"------8"----10"--|
|------7"--------7"------7"-----7"--|
|------5"--------5"------5"-----7"--|
|-----------------------------------|
|-0000----000000----0000----00------|
  ....    ......    ....    ..



|-------------------------------------|Gtr1&2
|------8"--------8"------8"----7"-8"--|
|------7"--------7"------7"----6"-7"--|
|------5"--------5"------5"----4"-5"--|
|-------------------------------------|
|-0000----000000----0000----00--------|
  ....    ......    ....    ..




|----------------------------------------|Gtr1&2
|-----------8"--------8"------8"----10"--|
|--\2-2-2---7"--------7"------7"-----7"--|
|-----------5"--------5"------5"-----7"--|
|----------------------------------------|
|--------------000000----0000----00------|
    . . .      ......    ....    ..



|-----------------------------------------|Gtr1&2
|------8"--------8"------8"----7----------|
|------7"--------7"------7"----6----------|
|------5"--------5"------5"----4----4\----|
|--------------------------------------0--|
|-0000----000000----0000----00---00-------|
  ....    ......    ....    ..   ..






Riff A.2                          
|---------------------------------------|Gtr1&2
|------8"------8"------8"---7"-8--------|
|------7"------7"------7"---6"--7-------|
|------5"------5"------5"---4"---5-5h8--|
|---------------------------------------|
|-0000----0000----0000------------------|
  ....    ....    ....    



|-----------------------------------|Gtr1&2
|------8"------8--------8----7"-8"--|
|------7"------7--------7----6"-7"--|
|------5"------5--------5----4"-5"--|
|-----------------------------------|
|-0000----0000---000000---00--------|
  ....    ....   ......   ..



|-----------------------------------|Gtr1&2
|------8"------8"------8"----7"-8"--|
|------7"------7"------7"----6"-7"--|
|------5"------5"------5"----4"-5"--|
|-----------------------------------|
|-0000----0000----0000----00--------|
  ....    ....    ....    ..



|-------------------------------|Gtr1&2
|------8"------8--------8-------|
|------7"------7--------7-------|
|------5"------5--------5----6--|
|----------------------------6--|
|-0000----0000---000000---00-4--|
  ....    ....   ......   ..






Riff B
|--------------------------------|
|--------------------------------|
|--------------------------------|
|-9"-------8"------5"------4"-3"-|
|-7"------10"------7"------2"-2"-|
|----0-00-----0-00----0-00-------|
     . ..     . ..    . ..






Riff C.1
|---------------------------|Gtr1&2
|---------------------------|
|---------------------------|
|-5-555555555--4-444444444--|
|-3-333333333--2-222222222--|
|-3-333333333---------------|




|--------------------------------|Gtr1&2
|--------------------------------|
|-999999999999----7/99999999999--|
|-999999999999----7/99999999999--|
|-777777777777----5/77777777777--|
|--------------00----------------|
               ..




Riff C.2
|---------------------------|Gtr1&2
|---------------------------|
|-------------/7-777777777--|
|-5-555555555-/7-777777777--|
|-3-333333333-/5-555555555--|
|-3-333333333---------------|



ending var.1
|--------------------------------|Gtr1&2
|--------------------------------|
|-/9"-9/11-11"-11/12-12"-11"-9\--|
|-/9"-9/11-11"-11/12-12"-11"-9\--|
|-/7"-7/-9--9"--9/10-10"--9"-7\--|
|--------------------------------|





then play Riff C.1
then play 1st part of Riff C.2



Riff C.2 ending var.2               *sustain used for rest of this riff
|-------------------------------------------------------------------------|Gtr1&2
|-------------------------------------------------------------------------|
|-/9"-9/11-11"-11/12-12"-12/14-14"-\13---/16-/17--\14-\13---/16-/17--/19--|
|-/9"-9/11-11"-11/12-12"-12/14-14"-\13---/16-/17--\14-\13---/16-/17--/19--|
|-/7"-7/-9--9"--9/10-10"-10/12-12"-\11---/14-/15--\12-\11---/14-/15--/17--|
|-------------------------------------------------------------------------|
                                    *




then play Riff C.1
then play Riff C.2
then play Riff C.1
then play Riff C.2 w/ ending var.2
            
Hard to play? Try these video lessons and learn fast. | Correct




comments powered by Disqus
↑ Back to top | Tablatures and chords are parodies/interpretations of the original songs. You may use it for private study, scholarship, research or language learning purposes only