>
 >
One By One

One By One Guitar Tabs

Immortal - One By One chords, tabs, tablatures, lyrics

Guitar lessons | Add/correct | Request | Top 50 tabs Artists:  A B C D E F G H I J K L M N O P Q R S T U V W X Y Z 0-9

One By One Guitar Tabs – Immortal

CD, Sheet music, Poster

Do you like One By One? Share with your friends now
TabsTabs v2Tabs v3
          Providing tabs for this song was hell, I made it as accurate
            as I could and hope it provides you with all you need.

D|---------------------------------------------------------------|
A|---------------------------------------------------------------|
F|---------------------------------------------------------------|
C|---------5553---6663----5555--------9----5553---6663---555555--|
G|--2------7775---8885----7777--------7----7775---8885---77777755|
D|--0---0-------0------0-------3/6/5----0-------0------0---------|


|---------------------------------------------------------------|
|---------------------------------------------------------------|
|---------------------------------------------------------------|
|--9------5553---6663----5555--------9----5553---6663---555555--|
|--7------7775---8885----7777--------7----7775---8885---77777755|
|------0-------0------0-------3/6/5----0-------0------0---------|

|---------------------------------------------------------------|
|---------------------------------------------------------------|
|---------------------------------------------------------------|
|--9------5553---6664----5555--------9----5553---6664---555555--|
|--7------7775---8886----7777--------7----7775---8886---77777755|
|------0-------0------0-------3/6/5----0-------0------0---------|

|---------------------------------------------------------------|
|---------------------------------------------------------------|
|---------------------------------------------------------------|
|--9------5553---6664----5555--------9----5553---6664---555555--|
|--7------7775---8886----7777--------7----7775---8886---77777755|
|------0-------0------0-------3/6/5----0-------0------0---------|

|----------------------------------------------------|
|----------------------------------------------------|
|--9---------9-10-------9-10--12--10-9-10------10----|
|--6---------6-7--------6--7---9---7-6--7---------7--|
|--7---------7-8--------7--8--10---8-7--8--8-8------8|
|-----0-0-0-------0-0-0------------------------------|

|----------------------------------------------|
|----------------------------------------------|
|--9---------9-10-------9-10--12--10-9-10--10--|
|--6---------6-7--------6--7---9---7-6--7-----4|
|--7---------7-8--------7--8--10---8-7--8-----5|
|-----0-0-0-------0-0-0------------------------|

|---------------------------------------------------------------|
|---------------------------------------------------------------|
|---------------------------------------------------------------|
|--2------5553---6664----5555--------9----5553---6664---555555--|
|--2------7775---8886----7777--------7----7775---8886---77777755|
|--0---0-------0------0-------3/6/5----0-------0------0---------|

|---------------------------------------------------------------|
|---------------------------------------------------------------|
|---------------------------------------------------------------|
|--9------5553---6664----5555--------9----5553---6664---555555--|
|--7------7775---8886----7777--------7----7775---8886---77777755|
|------0-------0------0-------3/6/5----0-------0------0---------|

|------------------------------------------------------|
|-------------------------------------------------10---|
|--9---------9-10-------9-10--12--10-9-10------10----10|
|--6---------6-7--------6--7---9---7-6--7--------------|
|--7---------7-8--------7--8--10---8-7--8--8-8---------|
|-----0-0-0-------0-0-0--------------------------------|

|---------------------------------------------|
|---------------------------------------------|
|--9---------9-10-------9-10--12--10-9-10----7|
|--6---------6-7--------6--7---9---7-6--7----4|
|--7---------7-8--------7--8--10---8-7--8----5|
|-----0-0-0-------0-0-0-----------------------|


|--------------------------------------------------------------------------|
|---------------------------------------------------------------------10---|
|--9------------------9-10------------------9-10--12--10-9-10------10----10|
|--6------------------6-7-------------------6--7---9---7-6--7--------------|
|--7------------------7-8-------------------7--8--10---8-7--8--8-8---------|
|-----0-0-0-0-0-0-0-0------0-0-0-0-0-0-0-0-0-------------------------------|


|-------------------------------------------------------------------|
|-------------------------------------------------------------------|
|--9------------------9-10------------------9-10--12--10-9-10--10--7|
|--6------------------6-7-------------------6--7---9---7-6--7------4|
|--7------------------7-8-------------------7--8--10---8-7--8------5|
|-----0-0-0-0-0-0-0-0------0-0-0-0-0-0-0-0-0------------------------|

|---------------------------------------------------------|
|---------------------------------------------------------|
|---------------------------------------------------------|
|--------------------------12-11-12----10-9-9-10-9--------|
|-7777--7777--7777--7777---10--9-10-12--8-7-7--8-7-9-10--7|
|-----00----00----00----00----------10-------------7--8--5|

|----------------------------------------------------|
|----------------------------------------------------|
|----------------------------------------------------|
|--------------------------12-11-12----10-9-9-10-7--7|
|-7777--7777--7777--7777---10--9-10-12--8-7-7--8-9--5|
|-----00----00----00----00----------10--------------5|

|--------------------------------------------------------|
|--------------------------------------------------------|
|--------------------------------------------------------|
|--------------------------12-11-12----10-9-9-10-9-------|
|-7777--7777--7777--7777---10--9-10-12--8-7-7--8-7-9-10-7|
|-----00----00----00----00----------10-------------7--8-5|

|----------------------------------------------------|
|----------------------------------------------------|
|---------------------------------------------------7|
|--------------------------12-11-12----10-9-9-10-7--7|
|-7777--7777--7777--7777---10--9-10-12--8-7-7--8-9--5|
|-----00----00----00----00----------10---------------|

|---------------------------------------------------------------------|
|---------------------------------------------------------------------|
|-9------9------------------------------------------------------------|
|-9------9------------------------------------------------------------|
|-7------7--8--------------8--------------8--------------8------------|
|----------10-10-10-10-10-10-10-10-10-10-10-10-10-10-10-10-10-10-10-10|


|-----------------------------------------|
|-----------------------------------------|
|-9------9--------------------------------|
|-9------9---8---------7---------8-------5|
|-7------7---5-5-5-5-5-5-5-5-5-5-5-5-5-5-5|
|-----------------------------------------|

|------------------------------------------------------------|
|------------------------------------------------------------|
|-9----------------------------------------------------------|
|-9---------------------------------------7------------------|
|-7-----2----8--------------8-------------8-------------7/8/7|
|-------0---10-10-10-10-10-10-10-10-10-10---10-10-10-10-5/6/5|

|------------------------------------------|
|------------------------------------------|
|-9-----9----------------------------------|
|-9-----9----------------------------------|
|-7-----7---8---------8---------8-5-------5|
|-----------5-5-5-5-5-5-5-5-5-5-5-5---5-5-5|


|---------------------------------------------------------|
|---------------------------------------------------------|
|---------------------------------------------------------|
|--------------------------12-11-12----10-9-9-10-9--------|
|-7777--7777--7777--7777---10--9-10-12--8-7-7--8-7-9-10--7|
|-----00----00----00----00----------10-------------7--8--5|

|----------------------------------------------------|
|----------------------------------------------------|
|----------------------------------------------------|
|--------------------------12-11-12----10-9-9-10-7--7|
|-7777--7777--7777--7777---10--9-10-12--8-7-7--8-9--5|
|-----00----00----00----00----------10--------------5|

|--------------------------------------------------------|
|--------------------------------------------------------|
|--------------------------------------------------------|
|--------------------------12-11-12----10-9-9-10-9-------|
|-7777--7777--7777--7777---10--9-10-12--8-7-7--8-7-9-10-7|
|-----00----00----00----00----------10-------------7--8-5|

|----------------------------------------------------|
|----------------------------------------------------|
|---------------------------------------------------7|
|--------------------------12-11-12----10-9-9-10-7--7|
|-7777--7777--7777--7777---10--9-10-12--8-7-7--8-9--5|
|-----00----00----00----00----------10---------------|

|---------------------------------------------------------------------|
|---------------------------------------------------------------------|
|-9------9------------------------------------------------------------|
|-9------9---------------------------------7-------------7------------|
|-7------7----8--------------8-------------8-------------8------------|
|------------10-10-10-10-10-10-10-10-10-10---10-10-10-10---10-10-10-10|

|-----------------------------------------|
|-----------------------------------------|
|-9------9--------------------------------|
|-9------9---8---------7---------8-------5|
|-7------7---5-5-5-5-5-5-5-5-5-5-5-5-5-5-5|
|-----------------------------------------|

|------------------------------------------------------------|
|------------------------------------------------------------|
|-9----------------------------------------------------------|
|-9-----2---------------------------------7------------------|
|-7-----2----8--------------8-------------8-------------7/8/7|
|-------0---10-10-10-10-10-10-10-10-10-10---10-10-10-10-5/6/5|

|------------------------------------------|
|------------------------------------------|
|-9-----9----------------------------------|
|-9-----9---------------------------------7|
|-7-----7---8---------8---------8-5-------5|
|-----------5-5-5-5-5-5-5-5-5-5-5-5---5-5--|

|---------------------------------------------------------------|
|---------------------------------------------------------------|
|---------------------------------------------------------------|
|---------5553---6664----5555--------9----5553---6664---555555--|
|--2------7775---8886----7777--------7----7775---8886---77777755|
|--0---0-------0------0-------3/6/5----0-------0------0---------|

|---------------------------------------------------------------|
|---------------------------------------------------------------|
|---------------------------------------------------------------|
|--9------5553---6664----5555--------9----5553---6664---555555--|
|--7------7775---8886----7777--------7----7775---8886---77777755|
|------0-------0------0-------3/6/5----0-------0------0---------|

                   "One by one, we took your lives"
|--------------------------------------------------|
|--------------------------------------------------|
|--------------------------------------------------|
|-9---------9---------3-3--9---------9-------------|
|-7---------7---------5-5--7---------7---------1-1/|
|---0-0-0-0---0-0-0-0--------0-0-0-0---0-0-0-0-3-3/|
                      On the last 1/ slide up the fret
                                  3/
|-----------------------------------------------------|
|-----------------------------------------------------|
|-----------------------------------------------------|
|-9---------9---------3-3--9---------9---------5------|
|-7---------7---------5-5--7---------7-7-5-7-8---8-7-5|
|---0-0-0-0---0-0-0-0--------0-0-0-0------------------|


|--------------------------------------------------|
|--------------------------------------------------|
|--------------------------------------------------|
|-9---------9---------3-3--9---------9-------------|
|-7---------7---------5-5--7---------7---------1-1/|
|---0-0-0-0---0-0-0-0--------0-0-0-0---0-0-0-0-3-3/|


|-----------------------------------------------------|
|-----------------------------------------------------|
|-----------------------------------------------------|
|-9---------9---------3-3--9---------9---------5------|
|-7---------7---------5-5--7---------7-7/5/7/8---8-7-5|
|---0-0-0-0---0-0-0-0--------0-0-0-0------------------|

|-----------------------------------------------------------|
|-----------------------------------------------------------|
|-9-----9/12-12----12/10-10---7-----------------------------|
|--------------------------------9---------9----------------|
|-7-----7/10-10----10/8--8----5--7-7-7-7-7-7-7-7-7-7-8-8-5-5|
|-5-----5/8--8------8/6--6----3-----------------------------|
                                 ^ Play this part twice


|-----------------------------------------------------------|
|-----------------------------------------------------------|
|-9-----9/12-12----12/10-10---7-----------------------------|
|--------------------------------9---------9----------------|
|-7-----7/10-10----10/8--8----5--7-7-7-7-7-7-7-7-7-7-8-8-5-5|
|-5-----5/8--8------8/6--6----3-----------------------------|


|--------------------------------------------------|
|--------------------------------------------------|
|--------------------------------------------------|
|-9---------9---------3-3--9---------9-------------|
|-7---------7---------5-5--7---------7---------1-1/|
|---0-0-0-0---0-0-0-0--------0-0-0-0---0-0-0-0-3-3/|


|-----------------------------------------------------|
|-----------------------------------------------------|
|-----------------------------------------------------|
|-9---------9---------3-3--9---------9---------5------|
|-7---------7---------5-5--7---------7-7/5/7/8---8-7-5|
|---0-0-0-0---0-0-0-0--------0-0-0-0------------------|

                       Solo Guitar 1
|-----------------------------------------------------------|
|-----------------------------------------------------------|
|-9-----9/12-12----12/10-10---7-----------------------------|
|------------------------0-------9---------9----------------|
|-7-----7/10-10----10/8--8----5--7-7-7-7-7-7-7-7-7-7-8-8-5-5|
|-5-----5/8--8------8/6--6----3-----------------------------|


|-----------------------------------------------------------|
|-----------------------------------------------------------|
|-9-----9/12-12----12/10-10---------------------------------|
|--------------------------------9---------9----------------|
|-7-----7/10-10----10/8--8----5--7-7-7-7-7-7-7-7-7-7-8-8-5-5|
|-5-----5/8--8------8/6--6----------------------------------|

|--------------------------------------------------------|
|--------------------------------------------------------|
|--------------------------------------------------------|
|-9---------9-----------------9---------9----------------|
|-7-7-7-7-7-7-7-7-7-7-8-8-5-5-7-7-7-7-7-7-7-7-7-7-8-8-5-5|
|--------------------------------------------------------|
                      Solo Guitar 2

|-----------------------------------|
|-----------------------------------|
|-9----9/12/12----12/10/12----12----|
|-----------13----------12----------|   <-- Slide on all of these
|-7----7--------------------------10|
|-----------------------------------|

|-------------------------------|
|-------------------------------|
|-9----9/12/12----12/14/14----14|
|-----------13----------15------|
|-7-----------------------------|
|-------------------------------|


|---------------------------------------|
|---------------------------------------|
|-16-------------16-------------16------|
|----14-14-14-14----14-14-14-14----14-14|
|---------------------------------------|
|---------------------------------------|

|---------------------------------------|
|---------------------------------------|
|-16-------------16-------------16------|
|----12-12-12-12----12-12-12-12----12-12|
|---------------------------------------|
|---------------------------------------|


|---------------------------------------|
|---------------------------------------|
|-16-------------16-------------16------|
|----11-11-11-11----11-11-11-11----11-11|
|---------------------------------------|
|---------------------------------------|

|-----------------------------------------|
|-----------------------------------------|
|-------14---------------14-------14------|
|-10-10------10-10-10-10----10-10----10-10|
|-----------------------------------------|
|-----------------------------------------|


|---------------------------------------|
|---------------------------------------|
|-16-------------16-------------16------|
|----14-14-14-14----14-14-14-14----14-14|
|---------------------------------------|
|---------------------------------------|

|---------------------------------------|
|---------------------------------------|
|-16-------------16-------------16------|
|----12-12-12-12----12-12-12-12----12-12|
|---------------------------------------|
|---------------------------------------|


|---------------------------------------|
|---------------------------------------|
|-16-------------16-------------16------|
|----11-11-11-11----11-11-11-11----11-11|
|---------------------------------------|
|---------------------------------------|

|------------------------------------------------|
|------------------------------------------------|
|-14-14-14-14-14-14-12-12-12-12-12-12-11-11-11-11|
|-10-10-10-10-10-10-10-10-10-10-10-10-10-10-10-10|
|------------------------------------------------|
|------------------------------------------------|


                   You know the rest.





Comments


Popular Immortal tabs & chords
At The Heart Of Winter Tabs
Blashyrkh Tabs
Blizzard Beasts Tabs
Cursed Realms Of The Winterdemons Tabs
Solarfall Tabs
The Darkness That Embrace Me Tabs
The Sun No Longer Rises Tabs
Triumph 2 Tabs
Where Dark And Light Don Differ Tabs
Where Dark And Light Don't Differ Tabs


Song lyrics



↑ Back to top | Tablatures and chords are parodies/interpretations of the original songs. You may use it for private study, scholarship, research or language learning purposes only
© 2014 AZChords.com Contact us | Privacy policy | DMCA | Add/correct tabs | Request tabs | Top 50 tabs