>
 >
My Demension

My Demension Guitar Tabs

Immortal - My Demension chords, tabs, tablatures, lyrics

Guitar lessons | Add/correct | Request | Top 50 tabs Artists:  A B C D E F G H I J K L M N O P Q R S T U V W X Y Z 0-9

My Demension Guitar Tabs – Immortal

CD, Sheet music, Poster

Do you like My Demension? Share with your friends now
TabsTabs v2
Band: Immortal
Tuning: Standard (E,A,D,G,B,E)

Intro: (after drums)
|---------------------------------------------------------------------|
|---------------------------------------------------------------------|
|-4-----4-7-----6-7--------2-2-0-2-4-----4-7-----6-7--------2-2-2-----|
|-2-----2-5-----4-5--------0-0-1-0-2-----2-5-----4-5--------3-3-3-3~--|
|---------------------------------------------------------------------|
|---0-0-----0-0------0-0-0-----------0-0-----0-0------0-0-0-----------| x2
pm  . .     . .      . . .           . .     . .      . . .

Verse:
|---------------------------------------------------------------------|
|---------------------------------------------------------------------|
|-4-----4-7-----6-7--------2-2-0-2-4-----4-7-----6-7--------2-2-2-----|
|-2-----2-5-----4-5--------0-0-1-0-2-----2-5-----4-5--------3-3-3-3~--|
|---------------------------------------------------------------------|
|---0-0-----0-0------0-0-0-----------0-0-----0-0------0-0-0-----------| x2
pm  . .     . .      . . .           . .     . .      . . .

Chorus Riff:
|-----------------------------------------------------------------------|
|-----------------------------------------------------------------------|
|-9------9-7------7-5------9-7-9-10--9------9-7------7-5------999-7-5-7-|
|-9------9-7------7-5------9-7-9-10--9------9-7------7-5------999-7-5-7-|
|-7------7-5------5-3------7-5-7-8---7------7-5------5-3------777-5-3-5-|
|---0000-----0000-----0000-------------0000-----0000-----0000-----------| x2
pm  ....     ....     ....             ....     ....     ....

Verse:
|---------------------------------------------------------------------|
|---------------------------------------------------------------------|
|-4-----4-7-----6-7--------2-2-0-2-4-----4-7-----6-7--------2-2-2-----|
|-2-----2-5-----4-5--------0-0-1-0-2-----2-5-----4-5--------3-3-3-3~--|
|---------------------------------------------------------------------|
|---0-0-----0-0------0-0-0-----------0-0-----0-0------0-0-0-----------| x2
pm  . .     . .      . . .           . .     . .      . . .

Chorus Riff:
|-----------------------------------------------------------------------|
|-----------------------------------------------------------------------|
|-9------9-7------7-5------9-7-9-10--9------9-7------7-5------999-7-5-7-|
|-9------9-7------7-5------9-7-9-10--9------9-7------7-5------999-7-5-7-|
|-7------7-5------5-3------7-5-7-8---7------7-5------5-3------777-5-3-5-|
|---0000-----0000-----0000-------------0000-----0000-----0000-----------| x2
pm  ....     ....     ....             ....     ....     ....

Bridge:
|-------------------------------------------------------------------|
|-------------------------------------------------------------------|
|-9---------------10-9--1010--------9---------------10-9--1010--7---|
|-9---------------10-9--1010--------9---------------10-9--1010--7---| contd..
|-7------7-8------8--7--8-8---------7------7-8------8--7--8-8---5---|
|---0000-----0000--0---0-----000000---0000-----0000--0---0----0-----|
pm  ....     ....  .   .     ......   ....     ....  .   .    .

|--------------------------------------------------------------------|
|--------------------------------------------------------------------|
|-9---------------10-9--1010--------9---------------10-9--12-12--7---|
|-9---------------10-9--1010--------9---------------10-9--12-12--7---|
|-7------7-8------8--7--8-8---------7------7-8------8--7--10-10--5---|
|---0000-----0000--0---0-----000000---0000-----0000--0---0-----0-----|  x2
pm  ....     ....  .   .     ......   ....     ....  .   .     .

Interlude:
|--------------------------------------------------------------|
|--------------------------------------------------------------|
|-4----------------7--------7-6--4----------------5--------7-5-|
|-4-44444444444444-7-777777-7-6--4-44444444444444-5-555555-7-5-|  contd...
|-2----------------5--------5-4--2----------------3--------5-3-|
|--------------------------------------------------------------|

-----------------------------------------------------|
-----------------------------------------------------|
-4----------------7--------7-6--4----------------5-2-|
-4-44444444444444-7-777777-7-6--4-44444444444444-5-2-|
-2----------------5--------5-4--2----------------3-0-|   x1
-----------------------------------------------------|

|---------------------------------------------------------------------|
|---------------------------------------------------------------------|
|-4----------------7--------2-4-5-0-1-3-4----------------5--------7-5-|
|-4-44444444444444-7-777777-2-4-5-0-1-3-4-44444444444444-5-555555-7-5-| contd.
|-2----------------5--------2-4-5-0-1-3-2----------------3--------5-3-|
|---------------------------------------------------------------------|

------------------------------------------------------------|
------------------------------------------------------------|
-4----------------7--------2-4-5-0-1-3-4----------------5-2-|
-4-44444444444444-7-777777-2-4-5-0-1-3-4-44444444444444-5-2-|
-2----------------5--------2-4-5-0-1-3-2----------------3-0-|   x1
------------------------------------------------------------|

Verse Riff  (solo backing):
|---------------------------------------------------------------------|
|---------------------------------------------------------------------|
|-4-----4-7-----6-7--------2-2-0-2-4-----4-7-----6-7--------2-2-2-----|
|-2-----2-5-----4-5--------0-0-1-0-2-----2-5-----4-5--------3-3-3-3~--|
|---------------------------------------------------------------------|
|---0-0-----0-0------0-0-0-----------0-0-----0-0------0-0-0-----------| x4
pm  . .     . .      . . .           . .     . .      . . .

Chorus Riff:
|-----------------------------------------------------------------------|
|-----------------------------------------------------------------------|
|-9------9-7------7-5------9-7-9-10--9------9-7------7-5------999-7-5-7-|
|-9------9-7------7-5------9-7-9-10--9------9-7------7-5------999-7-5-7-|
|-7------7-5------5-3------7-5-7-8---7------7-5------5-3------777-5-3-5-|
|---0000-----0000-----0000-------------0000-----0000-----0000-----------| x2
pm  ....     ....     ....             ....     ....     ....

Verse:
|---------------------------------------------------------------------|
|---------------------------------------------------------------------|
|-4-----4-7-----6-7--------2-2-0-2-4-----4-7-----6-7--------2-2-2-----|
|-2-----2-5-----4-5--------0-0-1-0-2-----2-5-----4-5--------3-3-3-3~--|
|---------------------------------------------------------------------|
|---0-0-----0-0------0-0-0-----------0-0-----0-0------0-0-0-----------| x2
pm  . .     . .      . . .           . .     . .      . . .

Chorus Riff:
|-----------------------------------------------------------------------|
|-----------------------------------------------------------------------|
|-9------9-7------7-5------9-7-9-10--9------9-7------7-5------999-7-5-7-|
|-9------9-7------7-5------9-7-9-10--9------9-7------7-5------999-7-5-7-|
|-7------7-5------5-3------7-5-7-8---7------7-5------5-3------777-5-3-5-|
|---0000-----0000-----0000-------------0000-----0000-----0000-----------| x2
pm  ....     ....     ....             ....     ....     ....

Bridge:
|-------------------------------------------------------------------|
|-------------------------------------------------------------------|
|-9---------------10-9--1010--------9---------------10-9--1010--7---|
|-9---------------10-9--1010--------9---------------10-9--1010--7---| contd..
|-7------7-8------8--7--8-8---------7------7-8------8--7--8-8---5---|
|---0000-----0000--0---0-----000000---0000-----0000--0---0----0-----|
pm  ....     ....  .   .     ......   ....     ....  .   .    .

|--------------------------------------------------------------------|
|--------------------------------------------------------------------|
|-9---------------10-9--1010--------9---------------10-9--12-12--7---|
|-9---------------10-9--1010--------9---------------10-9--12-12--7---|
|-7------7-8------8--7--8-8---------7------7-8------8--7--10-10--5---|
|---0000-----0000--0---0-----000000---0000-----0000--0---0-----0-----|  x2
pm  ....     ....  .   .     ......   ....     ....  .   .     .

Interlude:
|--------------------------------------------------------------|
|--------------------------------------------------------------|
|-4----------------7--------7-6--4----------------5--------7-5-|
|-4-44444444444444-7-777777-7-6--4-44444444444444-5-555555-7-5-|  contd...
|-2----------------5--------5-4--2----------------3--------5-3-|
|--------------------------------------------------------------|

-----------------------------------------------------|
-----------------------------------------------------|
-4----------------7--------7-6--4----------------5-2-|
-4-44444444444444-7-777777-7-6--4-44444444444444-5-2-|
-2----------------5--------5-4--2----------------3-0-|   x1
-----------------------------------------------------|

|---------------------------------------------------------------------|
|---------------------------------------------------------------------|
|-4----------------7--------2-4-5-0-1-3-4----------------5--------7-5-|
|-4-44444444444444-7-777777-2-4-5-0-1-3-4-44444444444444-5-555555-7-5-| contd.
|-2----------------5--------2-4-5-0-1-3-2----------------3--------5-3-|
|---------------------------------------------------------------------|

------------------------------------------------------------|
------------------------------------------------------------|
-4----------------7--------2-4-5-0-1-3-4----------------5-2-|
-4-44444444444444-7-777777-2-4-5-0-1-3-4-44444444444444-5-2-|
-2----------------5--------2-4-5-0-1-3-2----------------3-0-|
------------------------------------------------------------|

repeat last riff until fade out.

thats everything except the solo, thats impossible to tab especially cos u can hardly
hear it.





Comments


Popular Immortal tabs & chords
A Sign For The Norse Hordes To Ride Tabs
Blizzard Beasts Tabs
Nebular Ravens Winter Tabs
One By One 2 Tabs
The Darkness That Embrace Me Tabs
Tyrants Tabs
Tyrants 1 Tabs
Where Dark And Light Don't Differ Tabs
Withstand The Fall Of Time 1 Tabs
Years Of Silent Sorrow Tabs


Song lyrics



↑ Back to top | Tablatures and chords are parodies/interpretations of the original songs. You may use it for private study, scholarship, research or language learning purposes only
© 2014 AZChords.com Contact us | Privacy policy | DMCA | Add/correct tabs | Request tabs | Top 50 tabs