>
 >
Blashyrkh

Blashyrkh Bass Tabs

Immortal - Blashyrkh chords, tabs, tablatures, lyrics

Guitar lessons | Add/correct | Request | Top 50 tabs Artists:  A B C D E F G H I J K L M N O P Q R S T U V W X Y Z 0-9

Blashyrkh Bass Tabs – Immortal

CD, Sheet music, Poster

Do you like Blashyrkh? Share with your friends now
Bass TabsTabs
Drop D


G||--------------------------------------|
D||--------------------------------------|
A||--------------------------------------|
D||--2--2--2--2--2--2--2--2--2--2--2--2--|


                                                                              
--------------------------------------|--------------------------------------|
--------------------------------------|--------------------------------------|
--3--3--3--3--3--3--3--3--3--3--3--3--|--------------------------------------|
--------------------------------------|--2--2--2--2--2--2--2--2--2--2--2--2--|


                                                                              
--------------------------------------|--------------------------------------|
--------------------------------------|--------------------------------------|
--5--5--5--5--5--5--5--5--5--5--5--5--|--------------------------------------|
--------------------------------------|--2--2--2--2--2--2--2--2--2--2--2--2--|


                                                                              
--------------------------------------|--------------------------------------|
-----------------------------5--5--5--|--------------------------------------|
--3--3--3--3--3--3--5--5--5-----------|--------------------------------------|
--------------------------------------|--2--2--2--2--2--2--2--2--2--2--2--2--|


                                                                             
-------------------------------------|--------------------------------------|
-------------------------------------|--------------------------------------|
-------------------------------------|--------------------------------------|
--5--5--5--5--5--5--4--4--4--5---4---|--2--2--2--2--2--2--2--2--2--2--2--2--|


                                                                              
--------------------------------------|--------------------------------------|
--------------------------------------|--------------------------------------|
--3--3--3--3--3--3--3--3--3--3--3--3--|--------------------------------------|
--------------------------------------|--2--2--2--2--2--2--2--2--2--2--2--2--|


                                                                              
--------------------------------------|--------------------------------------|
--------------------------------------|--------------------------------------|
--5--5--5--5--5--5--5--5--5--5--5--5--|--------------------------------------|
--------------------------------------|--2--2--2--2--2--2--2--2--2--2--2--2--|


                                                                              
--------------------------------------|--------------------------------------|
-----------------------------5--5--5--|--------------------------------------|
--3--3--3--3--3--3--5--5--5-----------|--------------------------------------|
--------------------------------------|--2--2--2--2--2--2--2--2--2--2--2--2--|


                                                                             
-------------------------------------|-------------------|------------------|
-------------------------------------|-------------------|------------------|
-------------------------------------|-------------------|------------------|
--5--5--5--5--5--5--4--4--4--5---4---|--2----------------|------------------|


                                                                            
------------------|------------------|------------------|------------------|
------------------|------------------|------------------|------------------|
------------------|------------------|------------------|------------------|
------------------|------------------|------------------|------------------|


                                                            
------------------|------------------||--------------------|
------------------|------------------||*-------------------|
------------------|------------------||*--2----------------|
------------------|------------------||--------------------|


                                                                                
---------------------------|-------------------|------------------------------||
---------------------------|-------------------|-----------------------------*||
--------------1------------|--2----------------|--------------3---2---0------*||
---------------------------|-------------------|------------------------------||


                                                                      
-----------------------------|-------------------|-------------------|
-----------------------------|--2----------------|--3----------------|
--------------3---2---0------|-------------------|-------------------|
-----------------------------|-------------------|-------------------|


                                                                                
-------------------|-------------------|-------------------|-------------------|
--0----------------|--2----------------|--2----------------|--3----------------|
-------------------|-------------------|-------------------|-------------------|
-------------------|-------------------|-------------------|-------------------|


                                                           
-------------------|--------------------------------------|
--0----------------|--5--5--5--5--5--5--3--3--3--3--3--3--|
-------------------|--------------------------------------|
-------------------|--------------------------------------|


                                                                      
|--------------------|---------------------------|-------------------|
|*-------------------|---------------------------|-------------------|
|*--2----------------|--------------1------------|--2----------------|
|--------------------|---------------------------|-------------------|


                                                              
------------------------------||-----------------------------|
-----------------------------*||-----------------------------|
--------------3---2---0------*||--------------3---2---0------|
------------------------------||-----------------------------|


                                                                                
-------------------|-------------------|-------------------|-------------------|
--2----------------|--3----------------|--0----------------|--2----------------|
-------------------|-------------------|-------------------|-------------------|
-------------------|-------------------|-------------------|-------------------|


                                                            
-------------------|-------------------|-------------------|
--2----------------|--3----------------|--0----------------|
-------------------|-------------------|-------------------|
-------------------|-------------------|-------------------|


                                                                              
--------------------------------------|--------------------------------------|
--5--5--5--5--5--5--3--3--3--3--3--3--|--------------------------------------|
--------------------------------------|--------------------------------------|
--------------------------------------|--2--2--2--2--2--2--2--2--2--2--2--2--|


                                                                              
--------------------------------------|--------------------------------------|
--------------------------------------|--------------------------------------|
--3--3--3--3--3--3--3--3--3--3--3--3--|--------------------------------------|
--------------------------------------|--2--2--2--2--2--2--2--2--2--2--2--2--|


                                                                              
--------------------------------------|--------------------------------------|
--------------------------------------|--------------------------------------|
--5--5--5--5--5--5--5--5--5--5--5--5--|--------------------------------------|
--------------------------------------|--2--2--2--2--2--2--2--2--2--2--2--2--|


                                                                              
--------------------------------------|--------------------------------------|
-----------------------------5--5--5--|--------------------------------------|
--3--3--3--3--3--3--5--5--5-----------|--------------------------------------|
--------------------------------------|--2--2--2--2--2--2--2--2--2--2--2--2--|


                                                                             
-------------------------------------|--------------------------------------|
-------------------------------------|--------------------------------------|
-------------------------------------|--------------------------------------|
--5--5--5--5--5--5--4--4--4--5---4---|--2--2--2--2--2--2--2--2--2--2--2--2--|


                                                                              
--------------------------------------|--------------------------------------|
--------------------------------------|--------------------------------------|
--3--3--3--3--3--3--3--3--3--3--3--3--|--------------------------------------|
--------------------------------------|--2--2--2--2--2--2--2--2--2--2--2--2--|


                                                                              
--------------------------------------|--------------------------------------|
--------------------------------------|--------------------------------------|
--5--5--5--5--5--5--5--5--5--5--5--5--|--------------------------------------|
--------------------------------------|--2--2--2--2--2--2--2--2--2--2--2--2--|


                                                                              
--------------------------------------|--------------------------------------|
-----------------------------5--5--5--|--------------------------------------|
--3--3--3--3--3--3--5--5--5-----------|--------------------------------------|
--------------------------------------|--2--2--2--2--2--2--2--2--2--2--2--2--|


                                                            
-------------------------------------||--------------------|
-------------------------------------||*-------------------|
-------------------------------------||*--2----------------|
--5--5--5--5--5--5--4--4--4--5---4---||--------------------|


                                                                                
---------------------------|-------------------|------------------------------||
---------------------------|-------------------|-----------------------------*||
--------------1------------|--2----------------|--------------3---2---0------*||
---------------------------|-------------------|------------------------------||


                                                                      
-----------------------------|-------------------|-------------------|
-----------------------------|--2----------------|--3----------------|
--------------3---2---0------|-------------------|-------------------|
-----------------------------|-------------------|-------------------|


                                                                                
-------------------|-------------------|-------------------|-------------------|
--0----------------|--2----------------|--2----------------|--3----------------|
-------------------|-------------------|-------------------|-------------------|
-------------------|-------------------|-------------------|-------------------|


                                                                               
-------------------|--------------------------------------|-------------------|
--0----------------|--5--5--5--5--5--5--3--3--3--3--3--3--|--2----------------|
-------------------|--------------------------------------|-------------------|
-------------------|--------------------------------------|-------------------|


                                                            
-------------------|-------------------|-------------------|
--3----------------|--0----------------|--2----------------|
-------------------|-------------------|-------------------|
-------------------|-------------------|-------------------|


                                                                                
-----------------------------|-------------------|-----------------------------|
-----------------------------|-------------------|-----------------------------|
--2------------0------2------|--5----------------|--2------------0------2------|
-----------------------------|-------------------|-----------------------------|


                                                                      
-------------------|-----------------------------|-------------------|
-------------------|-----------------------------|-------------------|
-------------------|--2------------0------2------|--5----------------|
--5----------------|-----------------------------|-------------------|


                                                                      
-----------------------------|-------------------|-------------------|
-----------------------------|-------------------|-------------------|
--2------------0------2------|-------------------|-------------------|
-----------------------------|--5----------------|--2----------------|


                                                                              
------------------|------------------||-------------------|------------------|
------------------|------------------||*------------------|------------------|
------------------|------------------||*------------------|------------------|
------------------|------------------||-------------------|------------------|


                                                                               
-------------------||-------------------|------------------|------------------|
------------------*||*------------------|------------------|------------------|
------------------*||*------------------|------------------|------------------|
-------------------||-------------------|------------------|------------------|


                                                                         
-----------||-------------------|------------------|-------------------||
----------*||*------------------|------------------|------------------*||
----------*||*------------------|------------------|------------------*||
-----------||-------------------|------------------|-------------------||


                                                                               
-------------------|------------------|------------------|-------------------||
*------------------|------------------|------------------|------------------*||
*------------------|------------------|------------------|------------------*||
-------------------|------------------|------------------|-------------------||


                                                                               
-------------------|------------------|------------------|-------------------||
*------------------|------------------|------------------|------------------*||
*------------------|------------------|------------------|------------------*||
-------------------|------------------|------------------|-------------------||


                                                                              
--------------------------------------|--------------------------------------|
--------------------------------------|--------------------------------------|
--------------------------------------|--3--3--3--3--3--3--3--3--3--3--3--3--|
--2--2--2--2--2--2--2--2--2--2--2--2--|--------------------------------------|


                                                                              
--------------------------------------|--------------------------------------|
--------------------------------------|--------------------------------------|
--------------------------------------|--5--5--5--5--5--5--5--5--5--5--5--5--|
--2--2--2--2--2--2--2--2--2--2--2--2--|--------------------------------------|


                                                                              
--------------------------------------|--------------------------------------|
--------------------------------------|-----------------------------5--5--5--|
--------------------------------------|--3--3--3--3--3--3--5--5--5-----------|
--2--2--2--2--2--2--2--2--2--2--2--2--|--------------------------------------|


                                                                             
--------------------------------------|-------------------------------------|
--------------------------------------|-------------------------------------|
--------------------------------------|-------------------------------------|
--2--2--2--2--2--2--2--2--2--2--2--2--|--5--5--5--5--5--5--4--4--4--5---4---|


                                                                              
--------------------------------------|--------------------------------------|
--------------------------------------|--------------------------------------|
--------------------------------------|--3--3--3--3--3--3--3--3--3--3--3--3--|
--2--2--2--2--2--2--2--2--2--2--2--2--|--------------------------------------|


                                                                              
--------------------------------------|--------------------------------------|
--------------------------------------|--------------------------------------|
--------------------------------------|--5--5--5--5--5--5--5--5--5--5--5--5--|
--2--2--2--2--2--2--2--2--2--2--2--2--|--------------------------------------|


                                                                              
--------------------------------------|--------------------------------------|
--------------------------------------|-----------------------------5--5--5--|
--------------------------------------|--3--3--3--3--3--3--5--5--5-----------|
--2--2--2--2--2--2--2--2--2--2--2--2--|--------------------------------------|


                                                                             
--------------------------------------|-------------------------------------|
--------------------------------------|-------------------------------------|
--------------------------------------|-------------------------------------|
--2--2--2--2--2--2--2--2--2--2--2--2--|--5--5--5--5--5--5--4--4--4--5---4---|


                                                                               
--------------------------------------|-------------------|------------------||
--------------------------------------|-------------------|------------------||
--------------------------------------|-------------------|------------------||
--2--2--2--2--2--2--2--2--2--2--2--2--|--2----------------|------------------||





Comments


Popular Immortal tabs & chords
Beyond The North Waves Tabs
Blizzard Beasts Tabs
Descent Into Eminent Silence Tabs
Frostdemonstorm Tabs
The Call Of The Winter Moon Tabs
The Darkness That Embrace Me Tabs
Tragedies Blows At Horizon Tabs
Wrath From Above Tabs
Wrath From Above 1 Tabs
Years Of Silent Sorrow Tabs


Song lyrics



↑ Back to top | Tablatures and chords are parodies/interpretations of the original songs. You may use it for private study, scholarship, research or language learning purposes only
© 2014 AZChords.com Contact us | Privacy policy | DMCA | Add/correct tabs | Request tabs | Top 50 tabs