>
 >
Torn

Torn Chords

Imbruglia Natalie - Torn chords, tabs, tablatures, lyrics

Guitar lessons | Add/correct | Request | Top 50 tabs Artists:  A B C D E F G H I J K L M N O P Q R S T U V W X Y Z 0-9

Torn Chords – Imbruglia Natalie

CD, Sheet music, Poster

Do you like Torn? Share with your friends now
Bass TabsChordsChords v2TabsTabs v2
---===>>===---
                           Natalie  Imbruglia

This a Fantastic Song.  I have listenend to this track repeatedly and I 
feel that this is pretty close, I have limited knowledge of Chords, so 
the Build-Up is no doubt using Chords, If so, please contact me and tell 
me what they are.




                                -==-

Guitar1 :  Plays the BarChord 'F' four times, using a heavy/slow pluck. 
           While Guitar 2, plays these 4 notes slowly.

      F          F         F          F

E|----8----|----------|----------|---------|
B|---------|----11----|----10----|----8----|
G|---------|----------|----------|---------|
D|---------|----------|----------|---------|
A|---------|----------|----------|---------|
E|---------|----------|----------|---------|


                                -==- 

"I thought I saw a man brought to life..."

          F
          
E|--------1--------|
B|--------1--------|
G|--------2--------|
D|--------3--------|
A|--------3--------|
E|--------1--------|

"He was warm, he came around like he was dignified..."

          Am
          
E|--------0--------|
B|--------1--------|
G|--------2--------|
D|--------2--------|
A|--------0--------|
E|--------0--------|

"He showed me what it was to cry."

          Bb
          
E|--------1--------|
B|--------3--------|
G|--------3--------|
D|--------3--------|
A|--------1--------|
E|--------1--------|


  F

   "Well you couldn't be that man I adored"

  Am                                                      Bb

   "You dont seem to know - Don't seem to care what your Heart is for"


   "...But I don't know him anymore."


                                -==-


"theres nothing..." "My conversation" "Thats what..."  "Nothing's fine."

E|------------------|----------------|----------------|----------------|
B|--------------10--|-----------8----|---------5------|-----------8----|
G|----------10------|--------9-------|------5---------|--------9-------|
D|------12----------|------10--------|-----7----------|------10--------|
A|--12--------------|--10------------|--7-------------|--10------------|
E|------------------|----------------|----------------|----------------|


                                -==- 

F                C
"Im all out of Faith"

                Dm
"This is how I feel"

                    Bb                         F
"I'm cold and I am shamed lying naked on the floor"

                   C
"Illusion never changed"

                 Dm
"Into something real"

                    Bb                            F
"I'm wide awake and I can see the perfect sky is Torn"

                  C                 Dm               Bb*(Slow/Hard strum
UP, let ring)
"You're a little late, I'm already Torn."



                                -==- 

       s                    s              s                s    s
E|---1-/ 8----------|----10-/--------|---1-/-8--------|--10-/-13-/-10--|
B|------------------|---------10-----|----------------|----------------|
G|------------------|----------------|----------------|----------------|
D|------------------|----------------|----------------|----------------|
A|------------------|----------------|----------------|----------------|
E|------------------|----------------|----------------|----------------|





Comments


Popular Imbruglia Natalie tabs & chords
Cold Air Chords
Dont You Think Chords
Everything Goes Chords
Impressed Chords
Intuition Chords
Leave Me Alone Chords
Torn 2 Chords
Beauty Of Fire Tabs
Satellite Tabs
Torn 1 Tabs


Song lyrics



↑ Back to top | Tablatures and chords are parodies/interpretations of the original songs. You may use it for private study, scholarship, research or language learning purposes only
© 2014 AZChords.com Contact us | Privacy policy | DMCA | Add/correct tabs | Request tabs | Top 50 tabs