» » »

Imago, Migraine Bass tabs (ver.1)

Artists:  A B C D E F G H I J K L M N O P Q R S T U V W X Y Z # 

Migraine Bass tabs (ver.1)

Imago Tabs
Rating:
0/5 (0 votes)
Migraine lessons Tabs too difficult? Try these video lessons and learn fast
                

Intro

----------------------------------|
----------------------------------|
---5(12x)—2(12x)------------------|
-----------------2(12x)-3(12x)----|

Guitar solo(D,B,F#,G)Palm mute un…..

verse:

------------------------------------------------------------------|
------------------------------------------------------------------|
---5555555---5-7-5---2222222---2-4-2------------------------------|
--------------------------------------2222222-2-4-2—333333/10-----|

chorus

--------------------------------------------|
--------------------------------------------|
---5(12x)-77—99----2(12x)-------------------|
---------------------------2(12x)—3(12x)----|

(repeat verse)

then.

------------------------------------------------------------|
------------------------------------------------------------|
-----5(12x)-2(12x)------------------------------------------|
--------------------2(12x)-3(12x)---------------------------|

(repeat chorus)

--------------------------------------------|
--------------------------------------------|
---5(12x)-77—99----2(12x)-------------------|
---------------------------2(12x)—3(12x)----|

(repeat chorus 2x)

end n2

------------------------------------------------------------------|
------------------------------------------------------------------|
---5555555---5-7-5---2222222---2-4-2------------------------------|
--------------------------------------2222222-2-4-2—333333/10-----|
 


pagpaxnxahan nyu na pu…1st tym q maglagay ng tabs eh…
            
Submit corrections

comments powered by Disqus
↑ Back to top | Imago Bass for Migraine. Lyrics for acoustic guitar and electric guitar. Tablatures and chords are parodies/interpretations of the original songs. You may use it for private study, scholarship, research or language learning purposes only