>
 >
Ewan

Ewan Guitar Tabs

Imago - Ewan chords, tabs, tablatures, lyrics

Guitar lessons | Add/correct | Request | Top 50 tabs Artists:  A B C D E F G H I J K L M N O P Q R S T U V W X Y Z 0-9

Ewan Guitar Tabs – Imago

CD, Sheet music, Poster

Do you like Ewan? Share with your friends now
Bass TabsChordsChords v2TabsUkulele
Song : Ewan
Artist : Imago

Standard tuning : EADGBE


Intro


Ewan…

Riff Part   (w/ wah wah)

    AM7                      DM7
E|--9---x-x-9----------|-------14--14-14-14-x-|
B|--9---x-x-9----------|-14-14-14--14-14-14-x-|
G|--9---x-x-9----------|-14-14-14--14-14-14-x-|
D|--7---x-x-7----------|-14-14-----14-14-14-x-|
A|---------------------|----------------------|
E|---------------------|----------------------|

    AM7                      DM7                        (x2)
E|--9---x-x-9----------|-14-14-14--14-14-14-x-|
B|--9---x-x-9----------|-14-14-14--14-14-14-x-|
G|--9---x-x-9----------|-14-14-14--14-14-14-x-|
D|--7---x-x-7----------|-----------14-14-14-x-|
A|---------------------|----------------------|
E|---------------------|----------------------|


 (Part with drums  do Riff also)

AM7  DM7  AM7  DM7   (x2)



Stanza 1:
    C#m7                F#m7
E|--4--x-x-4-x-|--9---9--9---9-x-x-|
B|--5--x-x-5-x-|-10--10-10--10-x-x-|
G|--5--x-x-5-x-|-11--11-11--11-x-x-|
D|--6--x-x-6-x-|-11--11-11--11-x-x-|
A|--4--x-x-4-x-|--9---9--9---9-x-x-|
E|-------------|-------------------|

   Di   ko       alam  


    C#m7                F#m7
E|--4--x-x-4-x-|--9---9--9---9-x-x-|
B|--5--x-x-5-x-|-10--10-10--10-x-x-|
G|--5--x-x-5-x-|-11--11-11--11-x-x-|
D|--6--x-x-6-x-|-11--11-11--11-x-x-|
A|--4--x-x-4-x-|--9---9--9---9-x-x-|
E|-------------|-------------------|

kung bakit ka   ganyan 


    Bm7
E|--7--x-x-7-x-|-7--7-7--7-x-x-|
B|--7--x-x-7-x-|-7--7-7--7-x-x-|
G|--7--x-x-7-x-|-7--7-7--7-x-x-|
D|--7--x-x-7-x-|-7--7-7--7-x-x-|
A|--9--x-x-9-x-|-9--9-9--9-x-x-|
E|-------------|---------------|  

    Mahirap     kausapin    at


    Esus               E
E|---x--x-x--x-x-|--x--x-x--x-x-x-|
B|--10--x-x-10-x-|-10--9-9--9-x-x-|
G|---9--x-x--9-x-|--9--9-9--9-x-x-|
D|---9--x-x--9-x-|--7--7-7--7-x-x-|
A|---7--x-x--7-x-|--7--7-7--7-x-x-|
E|---------------|----------------|  

   di pa       namamansin 


C#m7        F#m7   C#m7       F#m7
Di   mo ba alam  ako'y nasasaktan 

       Bm7                  Esus      E
Ngunit di bale na basta't malaman mo na … 


(Chorus)

    FM7            G
E|---8--x-x--8-x-|-10--10-10--10-x-x-|
B|--10--x-x-10-x-|-12--12-12--12-x-x-|
G|---9--x-x--9-x-|-12--12-12--12-x-x-|
D|--10--x-x-10-x-|-12--12-12--12-x-x-|
A|---8--x-x--8-x-|-10--10-10--10-x-x-|
E|---------------|-------------------| 

    Mahal  kita, mahal  kita,


    Em7          Am7
E|--7--x-x-7-x-|--8---8--8---8-x-x-|
B|--8--x-x-8-x-|-10--10-10--10-x-x-|
G|--7--x-x-7-x-|--9---9--9---9-x-x-|
D|--9--x-x-9-x-|--7---7--7---7-x-x-|
A|--7------7---|-------------------|
E|-------------|-------------------| 

   hindi ito       bola 


   Dm7
E|--5--x-x-5-x-|-5--5-5--5-x-x-|
B|--6--x-x-6-x-|-6--6-6--6-x-x-|
G|--5--x-x-5-x-|-5--5-5--5-x-x-|
D|--7--x-x-7-x-|-7--7-7--7-x-x-|
A|--5--x-x-5-x-|-5--5-5--5-x-x-|
E|-------------|---------------| 

  Ngumiti ka man lang sana   akoy


   Gsus          
E|--8--x-x-8-x-|-8--8-8--8-x-x-|
B|--8--x-x-8-x-|-8--8-8--8-x-x-|
G|--7--x-x-7-x-|-7--7-7--7-x-x-|
D|--5--x-x-5-x-|-5--5-5--5-x-x-|
A|-------------|---------------|
E|-------------|---------------| 

   nasa langit    na

  FM7          G           Em7      Am7
Mahal kita, mahal kita, hindi ito bola
 
   Dm7                        E (hold)
Sumagot ka naman 'wag lang …

     Do Intro 2nd Part only w/ Riff
Ewan …


Stanza 2:

C#m7   F#m7  C#m7           F#m7
Sana naman  itigil mo na 'yang 
 
     Bm7                 Esus            E
Kakasabi ng ewan at anong bola na naman 'yan 

C#m7         F#m7  C#m7         F#m7
Bakit ba ganyan, dalaga'y di alam
 
      Bm7                     Esus       E
Na ang ewan ay tulad na rin ng oong inaasam … 

(Repeat chorus)

Then instead of intro part after the chorus
  do    (this part is the one with drums)

AM7   DM7   AM7   DM7   AM7   DM7   AM7   DM7


(Instrumental)

  AM7  DM7      -Do this as Riff (strum)
E|-12-|--9-|
B|-14-|-10-|
G|-13-|-11-|
D|----|----|   With this chords
A|----|----|
E|----|----|  AM7   DM7   AM7   DM7   AM7   DM7   AM7   DM7


Solo
E|------4-4-4--4----------------------------------|
B|----5-------5------5-6-5---------------10.9-----|  (10.9 is -10-9-
G|-4h6------------4h6-------9/7-7-7-9-7------11.9-|    with only fast
D|------------------------------------------------|    rhythm)
A|------------------------------------------------|
E|------------------------------------------------|  

     C#m7      F#m7       C#m7       F#m7   (Same strum as stanza)


Solo
E|--------------------------------------------9.10.12-|
B|------7-9.7-----7-9.7-----7-9.7-------7.9.10--------|
G|-----9---------9---------9---------9.9--------------|
D|--7/9-------7/9-------7/9-------7/9-----------------|
A|----------------------------------------------------|
E|----------------------------------------------------|

       Bm7                 Esus           E


Solo
E|--12.12.12.14.12.12.12.12--9.10.-9.-9-10--9-|
B|--14.14.14.14.14.14.14.14-10.10.10.10-10-10-|
G|--------------------------------------------|
D|--------------------------------------------|
A|--------------------------------------------|
E|--------------------------------------------|

   C#m7              F#m7


Solo
E|-------------------------------9--9--10-----------11-----|
B|---------------------------10.10-10--12-----------12-----|
G|--------------------9.11.12------------------------------|
D|-------------9.11.12-------------------------------------|
A|------9.11.12--------------------------------------------|
E|--9.11---------------------------------------------------|

  C#m7               F#m7             Bm7          E


(Repeat Chorus)

(Coda)   (Just do the intro Riff)

  AM7   DM7   AM7   DM7
Ewan…

  AM7   DM7   AM7   DM7
Ewan…

  AM7   DM7   AM7   DM7
Ewan…

  AM7   DM7   AM7   DM7
Ewan…                 Oh!

AM7     DM7   AM7   DM7
    Doo doo   Doo-ooh…

AM7     DM7   AM7   DM7
    Doo doo   Waah-waah…

AM7     DM7   AM7   DM7
Doo Doo doo   Waah-waah…

AM7     DM7   AM7   DM7
Doo Doo doo   Doo-ooh…

AM7     DM7   AM7   DM7
Doo Doo doo   Waah-waah…

AM7     DM7   AM7   DM7
        Waah  Waah-waah…

      AM7     DM7   AM7   DM7
Aaa…ahhh…

AM7   DM7   AM7   DM7

AM7   DM7   AM7   DM7

AM7   DM7 (Fade out)



---Ewan basta ganyan dinig ko ^^  paki rate naman plss





Comments


Popular Imago tabs & chords
Akap Bass Tabs
Walang Misteryo Bass Tabs
Reset Tabs
Taning Tabs
Tara Lets Tabs
Bakit Ba Ganyan Ukulele
Highway Ukulele
Idlip Ukulele
Let It Snow Ukulele
Tugon Ukulele


Song lyrics



↑ Back to top | Tablatures and chords are parodies/interpretations of the original songs. You may use it for private study, scholarship, research or language learning purposes only
© 2014 AZChords.com Contact us | Privacy policy | DMCA | Add/correct tabs | Request tabs | Top 50 tabs