» » »

Illscarlett, N.T.F Tabs (ver.1)

Artists:  A B C D E F G H I J K L M N O P Q R S T U V W X Y Z # 

N.T.F Tabs (ver.1)

Illscarlett Tabs
Rating:
0/5 (0 votes)
N.T.F lessons Tabs too difficult? Try these video lessons and learn fast
                So I did the guitar pro tab but I was getting a few complaints that there was no regular 
so I decided to turn my guitar pro one into this.
It may be a bit erratic and such but all the parts are there (EXCEPT THE SOLO)
P.S. this is intended to be the version off the “EPdemic” CD but it works pretty much 
the version on “All Day With It” as well.
Hope you can follow it. Enjoy!


-------------------------------------------------------------------------------
                             N.T.F – illScarlett
-------------------------------------------------------------------------------


Tuning: EADGBE


Part 1

E||----------------------|------------------------|----------------------|
B||--6--------------6----|--9----------------9----|--8--------------8----|
G||-------6--------------|-------10---------------|-------8--------------|
D||------------6---------|-------------10---------|------------8---------|
A||--4-------------------|--8---------------------|--6-------------------|
E||----------------------|------------------------|----------------------|

--4--------------4----|----------------------|------------------------|
-------4--------------|--6--------------6----|--9----------------9----|
------------5---------|-------6--------------|-------10---------------|
----------------------|------------6---------|-------------10---------|
----------------------|--4-------------------|--8---------------------|
--4-------------------|----------------------|------------------------|

----------------------|--4----------------|
--8--------------8----|-------------------|
-------8--------------|-------------------|
------------8---------|-------------------|
--6-------------------|-------------------|
----------------------|--4----------------|


Part 2 x4

|--------------4----------|-----------------8-----------|
|--------------6----------|-----------------9-----------|
|-----6--------6----------|-----10---------10-----------|
|-----------6----------6--|------------10-----------10--|
|--4-----4----------4-----|--8------8------------8------|
|-------------------------|-----------------------------|


--------------6----------|--------------4----------|
--------------8----------|--------------4----------|
-----8--------8----------|--------------5----------|
-----------8----------8--|-----6--------6----------|
--6-----6----------6-----|-----------6----------6--|
-------------------------|--4-----4----------4-----|

ends last time with

|-----------------4----|
|-----------------4----|
|-----------------5----|
|--8----8---------6----|
|--6----6--------------|
|----------------------|

Lead Fill (Guitar 2 comes in with it on 3rd time guitar 1 is playing part 2)

---------------------------------|---------------------------------|
--/14--14------14--14----14------|--14p--13--13--13--13----13------|
--/13------13------13----13--13--|--13-------13------13----13--13--|
---------------------------------|---------------------------------|
---------------------------------|---------------------------------|
---------------------------------|---------------------------------|

---------------------------------|-------------------------|
--13p--11------11--11----11------|--8h--9-------9-------9--|
--13---13--13------13--------12--|--8------8----8----8-----|
---------------------------------|-------------------------|
---------------------------------|-------------------------|
---------------------------------|-------------------------|

----------------------------|-------------------------------|
---------9------9--------9--|--9h--11p--9--------9----------|
--/10-------10-------10-----|--------------10---------10----|
----------------------------|-------------------------------|
----------------------------|-------------------------------|
----------------------------|-------------------------------|


--------------------------|
--8----9----9s--11---9----|
--8----8------------------|
--------------------10----|
--------------------------|
--------------------------|


Verse x2

--------------------------|--------------------------|
--------4-----------4-----|--------4-----------4-----|
--------5-----------5-----|--------5-----------5-----|
--------6-----------6-----|--------6-----------6-----|
--------6-----------6-----|--------6-----------6-----|
--4--4--------4--4--------|--4--4--------4--4--------|

--------------------------|--------------------------|
--------8-----------8-----|--------8-----------8-----|
--------8-----------8-----|--------8-----------8-----|
--------8-----------8-----|--------8-----------8-----|
--6--6--6-----6--6--6-----|--6--6--6-----6--6--6-----|
--------------------------|--------------------------|

----------------------------|----------------------------|
---------9------------9-----|---------9------------9-----|
--------10-----------10-----|--------10-----------10-----|
--------10-----------10-----|--------10-----------10-----|
--8--8---8-----8--8---8-----|--8--8---8-----8--8---8-----|
----------------------------|----------------------------|


--------------------------|--------------------------|
--------6-----------6-----|--------8-----------8--4--|
--------6-----------6-----|--------8-----------8--5--|
--------6-----------6-----|--------8-----------8--6--|
--4--4--4-----4--4--4-----|--6--6--6-----6--6--6--6--|
--------------------------|--------------------------|

End last time with

|-------------------4----|
|-------------------4----|
|-------------------5----|
|--6h8----6----5----6----|
|----6----6---------6----|
|-------------------4----|

Break x1

--------------------------|--------------------------|
--6-----------------------|--8-----------------------|
--6-----------------------|--8-----------------------|
-----------3-----4--6-----|-----------5-----6--8-----|
-----------4-----4--4-----|-----------6-----6--6-----|
--------------------------|--------------------------|

Verse x2

Prechorus x2 (PM at first, getting louder)

--------------------------|
--------------------------|
--------------------------|
--6--6--6--6--6--6--6--6--|
--6--6--6--6--6--6--6--6--|
--4--4--4--4--4--4--4--4--|

Chorus:

Guitar 1: Part 1 x2

Followed by

Guitar 1: Part 2 x2
Guitar 2: Lead Fill


Verse 2: Verse part x2

Prechorus

Chorus 2:

Guitar 1: Part 1 x2

Followed by

Guitar 1: Part 2 x2
Guitar 2: Lead Fill

Post Chorus:

------------4---------|-----------------6----6----6----|
------------6---------|-----------------8----8----8----|
--6-------------------|--8----8----8-------------------|
--6-------------------|--8----8----8-------------------|
--4-------------------|--6----6----6-------------------|
----------------------|--------------------------------|

Solo: During the solo guitar 1 plays the Verse x2
Prechorus
Chorus 3:

Guitar 1: Part 1 x2

Then

Guitar 1:Part 1 x2
Guitar 2: plays the solid chords (below)

|--4----------------|
|--6----------------|
|--6----------------|
|--6----------------|
|--4----------------|
|-------------------|

---8----------------|--6----------------|--4----------------|
---9----------------|--8----------------|--4----------------|
--10----------------|--8----------------|--5----------------|
--10----------------|--8----------------|--6----------------|
---8----------------|--6----------------|--6----------------|
--------------------|-------------------|--4----------------|


--4----------------|---8----------------|--6----------------|
--6----------------|---9----------------|--8----------------|
--6----------------|--10----------------|--8----------------|
--6----------------|--10----------------|--8----------------|
--4----------------|---8----------------|--6----------------|
-------------------|--------------------|-------------------|

On the last time of the chorus the last bar of guitar 1’s part is replaced with

|--4----4--4--4--4--4------|
|--4----4--4--4--4--4------|
|--5----5--5--5--5--5------|
|--6----6--6--6--6--6------|
|--6----6--6--6--6--6------|
|--4----4--4--4--4--4------|

Outro: x4

|---8-----8---8---8--6-----4--|
|---9-----9---9---9--8-----6--|
|---10---10--10--10--8-----6--|
|---10---10--10--10--8-----6--|
|---8-----8---8---8--6-----4--|
|-----------------------------|


-----4--4--4--4--6-----4--|-----4--4--4--4--------4--|
-----6--6--6--6--8-----4--|-----4--4--4--4--------4--|
-----6--6--6--6--8-----5--|-----5--5--5--5--------5--|
-----6--6--6--6--8-----6--|-----6--6--6--6-----x--6--|
-----4--4--4--4--6-----6--|-----6--6--6--6-----x--6--|
-----------------------4--|-----4--4--4--4-----x--4--|

-----4--4--4--4------------|
-----4--4--4--4------------|
-----5--5--5--5------------|
-----6--6--6--6-----x—-----|
-----6--6--6--6-----x------|
-----4--4--4--4-----x------|

On the last time play this

--4--4--4--4--4--4--4--|--4----------4--------||
--4--4--4--4--4--4--4--|--4----------4--------||
--5--5--5--5--5--5--5--|--5----------5--------||
--6--6--6--6--6--6--6--|--6----------6--------||
--6--6--6--6--6--6--6--|--6----------6--------||
--4--4--4--4--4--4--4--|--4----------4--------||

| /  slide up
| \  slide down
| h  hammer-on
| p  pull-off
| ~  vibrato
| +  harmonic
| x  Mute note
===============================================================================
            

comments powered by Disqus
↑ Back to top | Illscarlett Tabs for N.T.F. Lyrics for acoustic guitar and electric guitar. Tablatures and chords are parodies/interpretations of the original songs. You may use it for private study, scholarship, research or language learning purposes only