» » »

Illscarlett, N.T.F Bass tabs (ver.1)

Artists:  A B C D E F G H I J K L M N O P Q R S T U V W X Y Z # 

N.T.F Bass tabs (ver.1)

Illscarlett Tabs
 Rating:
4/5 (4 votes)
N.T.F lessons Tabs too difficult? Try these video lessons and learn fast
1
                Standard Tuning off the All Day With It album. this is the way i play it in my band and 
goes together with everything else really good.


1:02 - You weren't thinking about...

G|------------------------------------------------------|
D|-------1--------1--------------------------1--------1-|
A|----3--------3-----------3--------3-----3--------3----|
E|-4--------4--------1--5-----1--5-----4--------4-------|

G|-------1--------3-|
D|----3--------5----|
A|-4--------6-------|
E|------------------|

G|------------------------------------------------------|
D|-------1--------1--------------------------1--------1-|
A|----3--------3-----------3--------3-----3--------3----|
E|-4--------4--------1--5-----1--5-----4--------4-------|

G|-------1----111111111111-|
D|----3--------------------|
A|-4-----------------------|
E|-------------------------|

1:25 - this time

G|---------------------------|
D|---------------------------|
A|--4------8------6----------|
E|-------------------------4-|


G|---------------------------|
D|---------------------------|
A|--4------8------6----------|
E|-------------------------4-|

G|---------------------------------|
D|---------------------------------|
A|-4-4-4-4-8-8-8-8-6-6-6-6---------|
E|-------------------------4-4-4-4-|

G|---------------------------------|
D|---------------------------------|
A|-4-4-4-4-8-8-8-8-6-6-6-----------|
E|-------------------------4-------|

1:46 - visions

G|------------------------------------------------------|
D|-------1--------1--------------------------1--------1-|
A|----3--------3-----------3--------3-----3--------3----|
E|-4--------4--------1--5-----1--5-----4--------4-------|

G|-------1--------3-|
D|----3--------5----|
A|-4--------6-------|
E|------------------|

G|------------------------------------------------------|
D|-------1--------1--------------------------1--------1-|
A|----3--------3-----------3--------3-----3--------3----|
E|-4--------4--------1--5-----1--5-----4--------4-------|

G|-------1----111111111111-|
D|----3--------------------|
A|-4-----------------------|
E|-------------------------|

2:09 - this time

G|---------------------------|
D|---------------------------|
A|--4------8------6----------|
E|-------------------------4-|


G|---------------------------|
D|---------------------------|
A|--4------8------6----------|
E|-------------------------4-|

G|---------------------------------|
D|---------------------------------|
A|-4-4-4-4-8-8-8-8-6-6-6-6---------|
E|-------------------------4-4-4-4-|

G|---------------------------------|
D|---------------------------------|
A|-4-4-4-4-8-8-8-8-6-6-6-----------|
E|-------------------------4-------|

G|-------------------|
D|-------------------|
A|-4--4--6-6-6-6-6-6-|
E|-------------------|

2:33 - solo

G|------------------------------------------------------|
D|-------1--------1--------------------------1--------1-|
A|----3--------3-----------3--------3-----3--------3----|
E|-4--------4--------1--5-----1--5-----4--------4-------|

G|-------1--------3-|
D|----3--------5----|
A|-4--------6-------|
E|------------------|

G|------------------------------------------------------|
D|-------1--------1--------------------------1--------1-|
A|----3--------3-----------3--------3-----3--------3----|
E|-4--------4--------1--5-----1--5-----4--------4-------|

G|-------1----111111111111-|
D|----3--------------------|
A|-4-----------------------|
E|-------------------------|

G|---------------------------|
D|---------------------------|
A|--4------8------6----------|
E|-------------------------4-|


G|---------------------------|
D|---------------------------|
A|--4------8------6----------|
E|-------------------------4-|

G|----------------------------------|
D|----------------------------------|
A|-444444448888888866666666---------|
E|-------------------------44444444-|

G|----------------------------------|
D|----------------------------------|
A|-444444448888888866666666---------|
E|-------------------------44444444-|

3:15 - lets go!

G|----------------------------------|
D|----------------------------------|
A|-8-8-8/6/4-4-444/6----------------|
E|------------------4-4444-4-4-4444-| x4

end on

G|-----------|
D|-----------|
A|-----------|
E|-4~--------|


good luck!
            
Submit corrections

comments powered by Disqus
↑ Back to top | Illscarlett Bass for N.T.F. Lyrics for acoustic guitar and electric guitar. 1 Tablatures and chords are parodies/interpretations of the original songs. You may use it for private study, scholarship, research or language learning purposes only