» » »

666unreal666 Tabs (ver.3)

Artists:  A B C D E F G H I J K L M N O P Q R S T U V W X Y Z # 

666unreal666 Tabs (ver.3)

Ill Nino
Rating:
0/5 (0 votes)

Hard to play? Try these video lessons and learn fast.
                Tuning: C (C,G,C,F,A,D)


intro:
-3-2-5-3-2-5------------------------------------------------------------------
-3-2---3-2--------------------------------------------------------------------
-3-2---3-2--------------------------------------------------------------------
                                                                              

verse:
-0-3-2-----------------------------------------------------------------------
-0-3-2-----------------------------------------------------------------------
-0-3-2-----------------------------------------------------------------------
                      
                                                        
prechorus
-3-2-5-3-2-0------------------------------------------------------------------
-3-2---3-2-0------------------------------------------------------------------
-3-2---3-2-0------------------------------------------------------------------
                                                                              

chorus:
-7-7-7-7-7-7-7-3-3-3-3-3-3----------------------------------------------------
-7-7-7-7-7-7-7-3-3-3-3-3-3----------------------------------------------------
-7-7-7-7-7-7-7-3-3-3-3-3-3----------------------------------------------------
            
Hard to play? Try these video lessons and learn fast. | Correct




comments powered by Disqus
↑ Back to top | Tablatures and chords are parodies/interpretations of the original songs. You may use it for private study, scholarship, research or language learning purposes only