» » »

666unreal666 Tabs (ver.1)

Artists:  A B C D E F G H I J K L M N O P Q R S T U V W X Y Z # 

666unreal666 Tabs (ver.1)

Ill Nino
Rating:
0/5 (0 votes)

Hard to play? Try these video lessons and learn fast.
                intro

---------------------------------------------
---------------------------------------------
---------------------------------------------
--3-2-----3-2-----3-2-----3-2-----3-2--------
--3-2--5--3-2--5--3-2--5--3-2--5--3-2---5----
--3-2-----3-2-----3-2-----3-2-----3-2--------

----------------------------------------------
----------------------------------------------
----------------------------------------------
-0-3-2---0-3-2--0-3-2--0-3-2--0-3-2--0-3-2----
-0-3-2---0-3-2--0-3-2--0-3-2--0-3-2--0-3-2----
-0-3-2---0-3-2--0-3-2--0-3-2--0-3-2--0-3-2----

----------------------------------------------
----------------------------------------------
----------------------------------------------
7-7-7-7-7-7-7-7-3-3-3-3-3-3-3-3---------------
7-7-7-7-7-7-7-7-3-3-3-3-3-3-3-3---------------
7-7-7-7-7-7-7-7-3-3-3-3-3-3-3-3---------------
            
Hard to play? Try these video lessons and learn fast. | Correct




comments powered by Disqus
↑ Back to top | Tablatures and chords are parodies/interpretations of the original songs. You may use it for private study, scholarship, research or language learning purposes only