» » »

Ill Nino, Liar Tabs (ver.3)

Artists:  A B C D E F G H I J K L M N O P Q R S T U V W X Y Z # 

Liar Tabs (ver.3)

Ill Nino Tabs
 Rating:
4/5 (4 votes)
Liar lessons Tabs too difficult? Try these video lessons and learn fast
                Drop D tuned to C-G-C-F-A-D
 
intro(acoustic or clean) (For all the pain..........)
1---------------------------------------------------------
2---------------------------------------------------------
3---------7-7-7-7-7-7-7-7-7-7-----------------------------
4---------7-7-7-7-7-7-7-7-7-7-----------------------------
5---------5-5-5-5-5-5-5-5-5-5------------8-8-8-8-8--------
6------------------------------------------------8-8-8-8-8
 
heavy part (I feel sick.....)
1----------------------------------------------------
2----------------------------------------------------
3----------------------------------------------------
4---7-----------7----------7-------------------------
5---5-----------5----------5-----------8-8-8-8-8-8---
6-------0-0-0----0-0-0-----0-0-0---8-8-8-8-8-8-------
 
chorus( you say things would be the same.......) on the 0's let them ring out
1------------------------------------------------------------------------------
2------------------------------------------------------------------------------
3------------------------------------------------------------------------------
4------------------------------------------------------------------------------
5-----7-7-7-7-7-7---0--8-8-8-8-8-8--0--7-7-7-7-7-7--0--8-8-8-8-8-8-8-8-8-8-8-8-
6-----7-7-7-7-7-7---0--8-8-8-8-8-8--0--7-7-7-7-7-7--0--8-8-8-8-8-8-8-8-8-8-8-8-
 
heavy middle part (Liar......)Just listen to rythm (You said things would be the same.....)
1----------------------------------------------------
2----------------------------------------------------
3----------------------------------------------------
4----------------------------------------------------
5----------------------------------------------------
6----0-0-0-0-0-0-0-0-0-0-0-0-0-0-0-0-0-0-0-0-0-0-0-0-
            
Submit corrections

comments powered by Disqus
↑ Back to top | Ill Nino Tabs for Liar. Lyrics for acoustic guitar and electric guitar. Tablatures and chords are parodies/interpretations of the original songs. You may use it for private study, scholarship, research or language learning purposes only