» » »

Ill Nino, Liar Tabs (ver.2)

Artists:  A B C D E F G H I J K L M N O P Q R S T U V W X Y Z # 

Liar Tabs (ver.2)

Ill Nino Tabs
Rating:
0/5 (0 votes)
Hard to play? Try these video lessons and learn fast.
                Tuning Drop C (C,G,C,F,A,D)


intro: clean
--7-7-7-7-7-------------------------------------------------------------------
--7-7-7-7-7---7---7--7--7--7------8---8---8---8---8---------------------------
--5-5-5-5-5--5---5--5--5--5-----8---8---8---8---8-----------------------------
                                                                              

verse:
-7-----------7-----------7----------------------------------------------------
-7--0-0-0-0--7--0-0-0-0--7--0-0-0-0--8-8-8-8-8-8-8----------------------------
-5--0-0-0-0--5--0-0-0-0--5--0-0-0-0--8-8-8-8-8-8-8----------------------------
----0-0-0-0-----0-0-0-0-----0-0-0-0--8-8-8-8-8-8-8----------------------------
                                                                              

chorus:
-7-7-7-7-7--0--8-8-8-8-8--0--7-7-7-7-7--0--8-8-8-8-8-8-8-8--------------------
-7-7-7-7-7--0--8-8-8-8-8--0--7-7-7-7-7--0--8-8-8-8-8-8-8-8--------------------
-7-7-7-7-7--0--8-8-8-8-8--0--7-7-7-7-7--0--8-8-8-8-8-8-8-8--------------------
                                                                              

bridge:
-00-0-0-0-00-0-0-00-0-0-0-00-0-0-00-0-0-0-00----------------------------------
    
                                                                          

outro:
-0-0-0-0-0-0------------------------------------------------------------------
-0-0-0-0-0-0------------------------------------------------------------------
-0-0-0-0-0-0------------------------------------------------------------------
            

comments powered by Disqus
↑ Back to top | Ill Nino Tabs for Liar. Lyrics for acoustic guitar and electric guitar. Tablatures and chords are parodies/interpretations of the original songs. You may use it for private study, scholarship, research or language learning purposes only