>
 >
God Save Us 2

God Save Us 2 Guitar Tabs

Ill Nino - God Save Us 2 chords, tabs, tablatures, lyrics

Guitar lessons | Add/correct | Request | Top 50 tabs Artists:  A B C D E F G H I J K L M N O P Q R S T U V W X Y Z 0-9

God Save Us 2 Guitar Tabs – Ill Nino

CD, Sheet music, Poster

Do you like God Save Us 2? Share with your friends now
Bass TabsBass Tabs v2TabsTabs v2Tabs v3
Ill Nino - God Save Us - Revolution Revolucion

Tuning : 6 String Dropped C {Tuned Low to High (C G C F a d)}

Intro:
|-----------|
|-----------|
|-8888\7777-|
|-xxxxxxxxx-|
|-6666\5555-|
|-----------|

Intro2:
|---------------------------------|
|---------------------------------|
|---------------------------------|
|---------------------------------|
|-------------------------00-0000-|
|-000001~-000001~-000001~-00-0000-|
                          .. ....   .palm mute

Pre-verse:
|------------------------------------|
|------------------------------------|
|------------------------------------|
|------------------------------------| <>harmonics
|-000001~-000001~-000001~-000010-----|
|-000001~-000001~-000001~-000010--<5>|

Verse:
|-----------|
|-----------|
|-8888\7777-|
|-xxxxxxxxx-|
|-6666\5555-|
|-----------|

Fill1:
|---------|
|---------|
|---------|
|---------|
|-000001x-|
|-000001x-|

Pre-Chorus:
|------------------------------------|
|------------------------------------|
|------------------------------------|
|------------------------------------| <>harmonics
|-000001~-000001~-000001~-000010-----|
|-000001~-000001~-000001~-000010--<5>|

Chorus:
|----------------------------------------------------------|
|----------------------------------------------------------|
|----------------------------------------------------------| (Guitar1)
|-14141414141414141010101010101010777777771010101010101010-|
|-1212121212121212 8 8 8 8 8 8 8 855555555 8 8 8 8 8 8 8 8-|
|-1212121212121212 8 8 8 8 8 8 8 855555555 8 8 8 8 8 8 8 8-|

|------------------------------------------------------------|
|------------------------------------------------------------|
|------------------------------------------------------------| (Guitar2)
|-----14-------1414-----10----1010----7----77----10----1010--|
|---12--12---12----12--8--8--8----8--5-5--5--5--8--8--8----8-|
|-12-------12---------8-----8-------5----5-----8-----8-------|

Verse:
|-----------|
|-----------|
|-8888\7777-|
|-xxxxxxxxx-|
|-6666\5555-|
|-----------|

Fill1:
|---------|
|---------|
|---------|
|---------|
|-000001x-|
|-000001x-|

Pre-Chorus:
|------------------------------------|
|------------------------------------|
|------------------------------------|
|------------------------------------| <>harmonics
|-000001~-000001~-000001~-000010-----|
|-000001~-000001~-000001~-000010--<5>|

Chorus:
|----------------------------------------------------------|
|----------------------------------------------------------|
|----------------------------------------------------------| (Guitar1)
|-14141414141414141010101010101010777777771010101010101010-|
|-1212121212121212 8 8 8 8 8 8 8 855555555 8 8 8 8 8 8 8 8-|
|-1212121212121212 8 8 8 8 8 8 8 855555555 8 8 8 8 8 8 8 8-|

|------------------------------------------------------------|
|------------------------------------------------------------|
|------------------------------------------------------------| (Guitar2)
|-----14-------1414-----10----1010----7----77----10----1010--|
|---12--12---12----12--8--8--8----8--5-5--5--5--8--8--8----8-|
|-12-------12---------8-----8-------5----5-----8-----8-------|

Bridge:
|------------------------------------------------------------|
|------------------------------------------------------------|
|------------------------------------------------------------|
|-----1414-------14-----1010----10----77----7----1010----10--|
|---12----12---12--12--8----8--8--8--5--5--5-5--8----8--8--8-|
|-12---------12-------8-------8-----5-----5----8-------8-----|

|-------------------|
|-------------------|
|-------------------|
|-----1414----------|
|---12----12-000111-|
|-12---------000111-|
             ......   .palm mute

Verse:
|-----------|
|-----------|
|-8888\7777-|
|-xxxxxxxxx-|
|-6666\5555-|
|-----------|

Fill1:
|---------|
|---------|
|---------|
|---------|
|-000001x-|
|-000001x-|

Pre-Chorus:
|------------------------------------|
|------------------------------------|
|------------------------------------|
|------------------------------------| <>harmonics
|-000001~-000001~-000001~-000010-----|
|-000001~-000001~-000001~-000010--<5>|

Outro:
|--------------------------------|
|--------------------------------|
|--------------------------------|
|--------------------------------|
|-000001~-000001~-000001~-01~01~-|
|-000001~-000001~-000001~-01~01~-|





Comments


Popular Ill Nino tabs & chords
Liar Chords
Barely Breathing Tabs
Corazon Of Mine Tabs
De La Vida 1 Tabs
Eye For An Eye Tabs
How Can I Live? Tabs
Liar 2 Tabs
Predisposed Tabs
Revolution Revolucion Tabs
Rot (Intro) Tabs


Song lyrics



↑ Back to top | Tablatures and chords are parodies/interpretations of the original songs. You may use it for private study, scholarship, research or language learning purposes only
© 2014 AZChords.com Contact us | Privacy policy | DMCA | Add/correct tabs | Request tabs | Top 50 tabs