» » »

Ill Nino, God Save Us Bass tabs (ver.2)

Artists:  A B C D E F G H I J K L M N O P Q R S T U V W X Y Z # 

God Save Us Bass tabs (ver.2)

Ill Nino Tabs
Rating:
0/5 (0 votes)
God Save Us lessons Tabs too difficult? Try these video lessons and learn fast
                Tune:EADG

I tabbed this song calmly...and...
I think it should be played like this way!!
Attention!!!Listen the rhythm veeeeeery carefully!!!!
                        ENJOY...
                     STAY SICK!!!!

           intro:(0:05)
         follow the drums...

G|----------|----------|
D|----------|----------|
A|--3_------|--3_------|
E|----------|----------|

         pause until the drums

G|-------|-----------|
D|-------|-----------|
A|--3-3--|--3-3-3-3--|
E|-------|-----------|

G|-----------------|
D|-----------------|
A|--3-3-3-3-3-4----|
E|-----------------|   X3

G|--------------|
D|--------------|
A|--3-3-3-3-3X--|
E|--------------|

        X2
-------------------------------------------

       pre-verse:(0:29)
       follow the drums...

G|----------|----------|
D|----------|----------|
A|--3_------|--3_------|
E|----------|----------|

G|----------------|
D|----------------|
A|--3-3-3-3-3-3X--|    pause
E|----------------|

         verse:(0:41)

G|-----------------|
D|-----------------|
A|--3-3-3-3-3-4----|
E|-----------------|   X3

G|--------------|
D|--------------|
A|--3-3-3-3-3X--|
E|--------------|

         X4

         chorus:(0:59.5)

G|---------------------|----------------------|
D|---------------------|----------------------|
A|--33333333333333333--|----------------------|
E|---------------------|--44444444444444444\--|

G|----------------------|---------------------|
D|----------------------|---------------------|
A|----------------------|---------------------|
E|--11111111111111111/--|--44444444444444444--|

            X2

        pre-verse:(1:18.5)
        follow the drums...

G|----------|----------|
D|----------|----------|
A|--3_------|--3_------|
E|----------|----------|

G|----------------|
D|----------------|
A|--3-3-3-3-3-3X--|    pause
E|----------------|

         verse:(1:30)

G|-----------------|
D|-----------------|
A|--3-3-3-3-3-4----|
E|-----------------|   X3

G|--------------|
D|--------------|
A|--3-3-3-3-3X--|
E|--------------|

          X4

         chorus:(1:49)

G|---------------------|----------------------|
D|---------------------|----------------------|
A|--33333333333333333--|----------------------|
E|---------------------|--44444444444444444\--|

G|----------------------|---------------------|
D|----------------------|---------------------|
A|----------------------|---------------------|
E|--11111111111111111/--|--44444444444444444--|

            X4

           pause

-------------------------------------------

         bridge:(2:28)

G|-----------1---|-----------1---|
D|----------2-2--|----------2-2--|
A|--3------------|---------------|
E|-------4-------|--1----4-------|

G|-----------1---|-----------1------|
D|----------2-2--|----------2-2-----|
A|--3------------|---------------3--|
E|-------4-------|--1----4----------|

G|---------------|
D|---------------|
A|--3-3-3-3-3-3--|
E|---------------|

        pre-verse:(2:49)
        follow the drums...

G|----------|----------|
D|----------|----------|
A|--3_------|--3_------|
E|----------|----------|

G|----------------|
D|----------------|
A|--3-3-3-3-3-3X--|    pause
E|----------------|

         verse:(3:01)

G|-----------------|
D|-----------------|
A|--3-3-3-3-3-4----|
E|-----------------|   X3

G|--------------|
D|--------------|
A|--3-3-3-3-3X--|
E|--------------|

          X6

G|-----------------|
D|-----------------|
A|--3-3-3-3-3-4----|
E|-----------------|   X3

G|------------|
D|------------|
A|--3-4---4X--|
E|------------|
   
       END
            
Submit corrections

comments powered by Disqus
↑ Back to top | Ill Nino Bass for God Save Us. Lyrics for acoustic guitar and electric guitar. Tablatures and chords are parodies/interpretations of the original songs. You may use it for private study, scholarship, research or language learning purposes only