» » »

Ill Nino, Corazon Of Mine Bass tabs (ver.1)

Artists:  A B C D E F G H I J K L M N O P Q R S T U V W X Y Z # 

Corazon Of Mine Bass tabs (ver.1)

Ill Nino Tabs
 Rating:
4/5 (4 votes)
Corazon Of Mine lessons Tabs too difficult? Try these video lessons and learn fast
                Band: Ill Nino

Tuning: C G C F

This song is pretty easy, all you need are quick fingers ;)

Intro
|--------------------|
|--------------------|
|--------------------|
|-00-000000----------| x7

|--------------------------------------------------------------|
|--------------------------------------------------------------|
|---------------6666----5555------------------6666----5555-----|
|-00-10-000-10------5555----5555--0-00-00010------5555----5555-|

|--------------------------------------------|
|--------------------------------------------|
|---------------6666----5555-----------------|
|-00-10-000-10------5555----5555--0-00-00010-|

Verse
|--------------------------------------------------------------|
|--------------------------------------------------------------|
|---------------6666----5555------------------6666----5555-----|
|-00-10-000-10------5555----5555--0-00-00010------5555----5555-| x2

Chorus
|---------------------------------------------------------------|
|---------------------------------------------------------------|
|-555555555555555-----------------------------------------------|
|-----------------77777777777777-555555555555555-00000000000000-| x2

Intro
|--------------------|
|--------------------|
|--------------------|
|-00-000000----------| x4

|--------------------------------------------------------------|
|--------------------------------------------------------------|
|---------------6666----5555------------------6666----5555-----|
|-00-10-000-10------5555----5555--0-00-00010------5555----5555-|

|--------------------------------------------|
|--------------------------------------------|
|---------------6666----5555-----------------|
|-00-10-000-10------5555----5555--0-00-00010-|

Verse
|--------------------------------------------------------------|
|--------------------------------------------------------------|
|---------------6666----5555------------------6666----5555-----|
|-00-10-000-10------5555----5555--0-00-00010------5555----5555-| x2

Chorus
|---------------------------------------------------------------|
|---------------------------------------------------------------|
|-555555555555555-----------------------------------------------|
|-----------------77777777777777-555555555555555-00000000000000-| x2

Fill
|--------------------|
|--------------------|
|--------------------|
|-00-00-00-00--------|

Fill 2
|--------------------------|
|--------------------------|
|------5-------66666-------|
|-0-00---0-000-------------| x6

Break
|--------------------------|
|--------------------------|
|-5~-3-1---------5~--------|
|--------7-5~--7-----------| x2

Chorus
|---------------------------------------------------------------|
|---------------------------------------------------------------|
|-555555555555555-----------------------------------------------|
|-----------------77777777777777-555555555555555-00000000000000-| x3

|---------------------------------------------------------------|
|---------------------------------------------------------------|
|-555555555555555-----------------------------------------------|
|-----------------77777777777777-5~-3-5-0~----------------------|

Enjoy !
            
Submit corrections

comments powered by Disqus
↑ Back to top | Ill Nino Bass for Corazon Of Mine. Lyrics for acoustic guitar and electric guitar. Tablatures and chords are parodies/interpretations of the original songs. You may use it for private study, scholarship, research or language learning purposes only