» » »

Ill Nino, Corazon Of Mine Tabs (ver.1)

Artists:  A B C D E F G H I J K L M N O P Q R S T U V W X Y Z # 

Corazon Of Mine Tabs (ver.1)

Ill Nino Tabs
 Rating:
4/5 (6 votes)
Corazon Of Mine lessons Tabs too difficult? Try these video lessons and learn fast
                Band - Ill Nino
Song - Corazon Of Mine
Album - One Nation Underground (Roadrunner Records 2005) Track # 8

Intro: ( Slowly Turn Vloume Up While Playing) (clean)

D|--3-5p3-3-5p3--8-10p8--8-10p8-|
A|------------------------------|
F|------------------------------|
C|------------------------------| x 3
G|------------------------------|
C|------------------------------|

D|-----------------------|
A|-----------------------|
F|-----------------------|
C|-00-0000000-00-0000000-| x 4
G|-00-0000000-00-0000000-|
C|-00-0000000-00-0000000-|
   .. ....... .. .......

D|-----------------------------------|
A|-----------------------------------|
F|-----------------------------------|  then play ............
C|-0-0--0-0-1-0-00-------------------|
G|-0-0--0-0-1-0-00--5555----6666-----|
C|-0-0--0-0-1-0-00------6666----5555-|
                    ................   

D|-----------------------------------------|
A|-----------------------------------------|
F|-----------------------------------------|
C|-0-0-0---0-0-0-0-0-1-0-------------------|
G|-0-0-0---0-0-0-0-0-1-0--5555----6666-----|
C|-0-0-0---0-0-0-0-0-1-0------6666----5555-| 
                          ................  

  
D|-----------------------------------|
A|-----------------------------------|
F|-----------------------------------|  then play the second riff again
C|-0-0--0-0-1-0-00-------------------|
G|-0-0--0-0-1-0-00--5555----6666-----|
C|-0-0--0-0-1-0-00------6666----5555-|
                    ................

D|-----------------------------------------|
A|-----------------------------------------|
F|-----------------------------------------|
C|-0-0-0---0-0-0-0-0-1-0-------------------|
G|-0-0-0---0-0-0-0-0-1-0--5555----6666-----|
C|-0-0-0---0-0-0-0-0-1-0------6666----5555-| 
                          ................ 

verse: (Turn Distortion Down) -guitar I-

D|-------------------------------------|
A|-------------------------------------|
F|-------------------------------------|
C|-------------------------------------| x 2
G|--5555----6666-----5555----6666------|
C|------6666----5555-----6666-----5555-|
    .................................. 

guitar II

D|----------------|
A|-2-3p2---2-3p2--|
F|----------------|
C|----------------| x 2
G|----------------|
C|----------------|

Chorus:

D|-----------------------------------|
A|-----------------------------------|
F|-777777----------------------------|
C|-777777-777777-555555-00000000-----| x 2
G|-555555-777777-555555-00000000-----|
C|--------555555-333333-00000000-----|

Fill:


D|-----------------------------------|
A|-----------------------------------|
F|-----------------------------------|  then play ............
C|-0-0--0-0-1-0-00-------------------|
G|-0-0--0-0-1-0-00--5555----6666-----|
C|-0-0--0-0-1-0-00------6666----5555-|
                    ................   

D|-----------------------------------------|
A|-----------------------------------------|
F|-----------------------------------------|
C|-0-0-0---0-0-0-0-0-1-0-------------------|
G|-0-0-0---0-0-0-0-0-1-0--5555----6666-----|
C|-0-0-0---0-0-0-0-0-1-0------6666----5555-| 
                          ................  

  
D|-----------------------------------|
A|-----------------------------------|
F|-----------------------------------|  then play the second riff again
C|-0-0--0-0-1-0-00-------------------|
G|-0-0--0-0-1-0-00--5555----6666-----|
C|-0-0--0-0-1-0-00------6666----5555-|
                    ................

D|-----------------------------------------|
A|-----------------------------------------|
F|-----------------------------------------|
C|-0-0-0---0-0-0-0-0-1-0-------------------|
G|-0-0-0---0-0-0-0-0-1-0--5555----6666-----|
C|-0-0-0---0-0-0-0-0-1-0------6666----5555-| 
                          ................ 

verse: (Turn Distortion Down) -guitar I-

D|-------------------------------------|
A|-------------------------------------|
F|-------------------------------------|
C|-------------------------------------| x 2
G|--5555----6666-----5555----6666------|
C|------6666----5555-----6666-----5555-|
    .................................. 

guitar II

D|----------------|
A|-2-3p2---2-3p2--|
F|----------------|
C|----------------| x 2
G|----------------|
C|----------------|


Chorus:

D|-----------------------------------|
A|-----------------------------------|
F|-777777----------------------------|
C|-777777-777777-555555-00000000-----| x 2
G|-555555-777777-555555-00000000-----|
C|--------555555-333333-00000000-----|

breakdown

D|---------------------------------|
A|---------------------------------|
F|---------------------------------|
C|---------------------------------|
G|----5------66666---5------66666--|
C|-000-0-0000-----000-0-0000-------|

Chorus:

D|-----------------------------------|
A|-----------------------------------|
F|-777777----------------------------|
C|-777777-777777-555555-00000000-----| x 2
G|-555555-777777-555555-00000000-----|
C|--------555555-333333-00000000-----|

Outro

Guitar I 

D|----|
A|----|
F|----|
C|-0~-|
G|-0~-|
C|-0~-|

Guitar II

 ( Slowly Turn Vloume Up While Playing) (clean)

D|--3-5p3-3-5p3--8-10p8--8-10p8-|
A|------------------------------|
F|------------------------------|
C|------------------------------| x 3
G|------------------------------|
C|------------------------------|



Please Rate
            
Submit corrections

comments powered by Disqus
↑ Back to top | Ill Nino Tabs for Corazon Of Mine. Lyrics for acoustic guitar and electric guitar. Tablatures and chords are parodies/interpretations of the original songs. You may use it for private study, scholarship, research or language learning purposes only