>
 >
Corazon Of Mine 1

Corazon Of Mine 1 Guitar Tabs

Ill Nino - Corazon Of Mine 1 chords, tabs, tablatures, lyrics

Guitar lessons | Add/correct | Request | Top 50 tabs Artists:  A B C D E F G H I J K L M N O P Q R S T U V W X Y Z 0-9

Corazon Of Mine 1 Guitar Tabs – Ill Nino

CD, Sheet music, Poster

Do you like Corazon Of Mine 1? Share with your friends now
Bass TabsTabsTabs v2
Ill Nino: Corazon Of Mine




Tuning: Drop C (C,G,C,F,A,D)

Riff 1 (w/ delay)
Guitar 1
D|---------5-5-----5-5-8-5---------5-5-----8-8-10-8-|
A|-----6-6-----8-8-------------6-6-----8-8----------|
F|-7-7---------------------7-7----------------------|
C|--------------------------------------------------|
G|--------------------------------------------------|
C|--------------------------------------------------|
   * * * * * * * * * *     * * * * * * * * * *

Riff 2
Guitar 1
D|--------------------------------------------|
A|--------------------------------------------|
F|--------------------------------------------|
C|--------------------------------------------|
G|-0-0--0-0-0--0-0--0-0--0-0--0-0-0--0-0--0-0-|
C|-0-0--0-0-0--0-0--0-0--0-0--0-0-0--0-0--0-0-|
   * *  * * *  * *  * *  * *  * * *  * *  * *

Riff 2 (w/ volume swells)
Guitar 2
D|----------------------|
A|-7~----8~----10~----8-|
F|----------------------|
C|----------------------|
G|----------------------|
C|----------------------|

Riff 3
D|-------------------------------------------|
A|-------------------------------------------|
F|-------------------------------------------|
C|-0-0--0-0-1-0--0-0-------------------------|
G|-0-0--0-0-1-0--0-0-6-6-6-------5-5-5-------|
C|-0-0--0-0-1-0--0-0-------5-5-5-------4-4-4-|
                     * * * * * * * * * * * *
D|---------------------------------------------|
A|---------------------------------------------|
F|---------------------------------------------|
C|-0--0-0--0--0--0-1-0-------------------------|
G|-0--0-0--0--0--0-1-0-6-6-6-------5-5-5-------|
C|-0--0-0--0--0--0-1-0-------5-5-5-------4-4-4-|
                       * * * * * * * * * * * *

Riff 4  "Clench my fist tight..."
D|-------------------------------------------|
A|-------------------------------------------|
F|-7-7--7-7-8-7--7-7-------------------------|
C|-x-x--x-x-x-x--x-x-------------------------|
G|-5-5--5-5-6-5--5-5-6-6-6-------5-5-5-------|
C|-------------------------5-5-5-------4-4-4-|
                     * * * * * * * * * * * *
D|---------------------------------------------|
A|---------------------------------------------|
F|-7--7-7--7--7--7-8-7-------------------------|
C|-x--x-x--x--x--x-x-x-------------------------|
G|-5--5-5--5--5--5-6-5-6-6-6-------5-5-5-------|
C|---------------------------5-5-5-------4-4-4-|
                       * * * * * * * * * * * *

Riff 5  "Stay...forever..."
D|-----------------------------------------------------|
A|-----------------------------------------------------|
F|-7-7-7-7-7-7-7-7-------------------------------------|
C|-x-x-x-x-x-x-x-x-0-8-8-8-8-8-8-8-8-0-5-5-5-5-5-5-5-5-|
G|-5-5-5-5-5-5-5-5-0-8-8-8-8-8-8-8-8-0-5-5-5-5-5-5-5-5-|
C|-----------------0-8-8-8-8-8-8-8-8-0-5-5-5-5-5-5-5-5-|

D|---------------------|
A|---------------------|
F|---------------------|
C|-7-7-0-0-0-0-0-0-0-0-|
G|-7-7-0-0-0-0-0-0-0-0-|
C|-7-7-0-0-0-0-0-0-0-0-|

Play Riff 2
Play Riff 3
Play Riff 4  "This encounter is far from over..."
Play Riff 5  "Stay...forever..."

Riff 6  "...how long."
D|-----------------|
A|-----------------|
F|-----------------|
C|-0-0-0-0-0-0-0-0-|
G|-0-0-0-0-0-0-0-0-|
C|-0-0-0-0-0-0-0-0-|

Riff 7
Guitar 1
D|----------------------------|
A|----------------------------|
F|---------7------------8-8-8-|
C|---------x------------x-x-x-|
G|-0--0--0-5-0--0--0--0-6-6-6-|
C|-0--0--0---0--0--0--0-------|
   *  *  *   *  *  *  *

Riff 7
Guitar 2
D|-------------------------------------------------|
A|-10-10-10-10-10-10-10-10-11-11-11-11-11-11-11-11-|
F|-------------------------------------------------|
C|-------------------------------------------------|
G|-------------------------------------------------|
C|-------------------------------------------------|

D|---------------------------------|
A|-8-8-8-8-8-8-8-8-7-7-7-7-7-7-7-7-|
F|---------------------------------|
C|---------------------------------|
G|---------------------------------|
C|---------------------------------|

D|-10-10-10-10-10-10-10-10-10-10-10-10-10-10-10-10-|
A|-------------------------------------------------|
F|-------------------------------------------------|
C|-------------------------------------------------|
G|-------------------------------------------------|
C|-------------------------------------------------|

Riff 8   "Stay...forever..."
Guitar 1 (Clean)
D|--------------------------------------------|
A|--------------------------------------------|
F|-14-------14-------12----10-----10-----10---|
C|----12-------12-------------8------8------8-|
G|--------------------------------------------|
C|-------12-------12----10------8------8------|

D|-----------------|
A|-----------------|
F|-7-----7-----9---|
C|---5-----5-----7-|
G|-----------------|
C|-----5-----5-----|

Play Riff 5   "Stay...forever..."

Riff 9   "...don't, remind me."
D|-----------|
A|-----------|
F|-----------|
C|-5--5-7-0~-|
G|-5--5-7-0~-|
C|-5--5-7-0~-|

Play Riff 1


Notation:

10^        = bend a quarter step.
10b11      = bend a half step.
10b12      = bend a full step.
10b12r10   = bend and release.
[10]12     = pre-bend.
[10]12r10  = pre-bend and release.
{14}       = pick the 14th fret while holding the most 
             previous bend.
<17>       = touch the string above the 17th fret while 
             previous note(s) is(are) still ringing.

10b13*     = tremolo bar bend, from the 10th fret to the 13th fret.
7d4*       = tremolo bar dive, from the 7th fret to the 4th fret. 
12~*       = tremolo bar vibrato.

x   =  mute with fret-hand
*   =  palm mute
X\\ =  pick slide
h   =  hammer-on
p   =  pull-off
~   =  vibrato
t   =  finger tap
/   =  slide up
\   =  slide down
h.  =  natural harmonics
a   =  artificial harmonics
(9) =  ghost note
tm  =  trem picking
tr  =  trill





Comments


Popular Ill Nino tabs & chords
God Save Us 1 Bass Tabs
666unreal666 Tabs
Barely Breathing Tabs
Cleansing 2 Tabs
De La Vida Tabs
Everything Beautiful Tabs
Te Amo I Hate You Tabs
The Depression Tabs
When It Cuts Tabs
When It Cuts 2 Tabs


Song lyrics



↑ Back to top | Tablatures and chords are parodies/interpretations of the original songs. You may use it for private study, scholarship, research or language learning purposes only
© 2014 AZChords.com Contact us | Privacy policy | DMCA | Add/correct tabs | Request tabs | Top 50 tabs