» » »

I Hate Kate, Its Always Better Tabs (ver.2)

Artists:  A B C D E F G H I J K L M N O P Q R S T U V W X Y Z # 

Its Always Better Tabs (ver.2)

I Hate Kate Tabs
 Rating:
4/5 (4 votes)
Its Always Better lessons Tabs too difficult? Try these video lessons and learn fast
                Check this out dudes, its 100% correct. and its all my work ;) haaha.

have fun, any questions, deal with them :) i got no time :)

enjoy x

Guitar 1
e|--8-7---------8-8-7-7--------------|
B|------5-8-8-5---------5-5-8-8-5----|
G|-----------------------------------| x3
D|-----------------------------------|
A|-----------------------------------|
E|-----------------------------------|

After First Time Through, Guitar 2 Plays:

Guitar 2
e|--------------------------------------------------------------------|
B|--------------------------------------------------------------------|
G|--5-5-5-5-5-5-5-5-----------------2-2-2-2-2-2-2-2-------------------|
D|--5-5-5-5-5-5-5-5-2-2-2-2-2-2-2-2-2-2-2-2-2-2-2-2-3-3-3-3-3-3-3-3---| x2
A|--3-3-3-3-3-3-3-3-2-2-2-2-2-2-2-2-0-0-0-0-0-0-0-0-3-3-3-3-3-3-3-3---|
E|------------------0-0-0-0-0-0-0-0-----------------1-1-1-1-1-1-1-1---|

Guitar 2
e|------|
B|------|
G|--5~--
D|--5~-- Let Ring
A|--3~--
E|------

Guitar 1
e|------------------------------|
B|------------------------------|
G|--5-5-5-5--5-5-5-5--5-5-5-5---|
D|--5-5-5-5--5-5-5-5--5-5-5-5---|  x4   Listen for strumming pattern.
A|--3-3-3-3--3-3-3-3--3-3-3-3---|
E|------------------------------|

Guitar 1
e|--8-7---------8-8-7-7--------------|
B|------5-8-8-5---------5-5-8-8-5----|
G|-----------------------------------|
D|-----------------------------------|
A|-----------------------------------|
E|-----------------------------------|

Guitar 1
e|--8-7----------|
B|------5-8-8-5~-|
G|---------------|
D|---------------|
A|---------------|
E|---------------|

Guitar 2
e|------|
B|------|
G|------|  End of Guitar 1, let ring.
D|--3~--
A|--3~--
E|--1~--

Guitar 1
e|--8-8-------------7-7----------8-8------------8-8----------7-7---------|
B|------8-8--x4---------8-8--x4------10-10--x4------8-8--x2------8-8--x2-|
G|-----------------------------------------------------------------------|
D|-----------------------------------------------------------------------|
A|-----------------------------------------------------------------------|
E|-----------------------------------------------------------------------|

Guitar 2
e|----------------------------------|
B|----------------------------------|
G|--5-------------------------------|
D|--5-x16--5------7------3----------|
A|--3------5-x16--7-x16--3-x16------|
E|---------3------5------1----------|

Guitar 1
e|--8-7---------8-8-7-7--------------|
B|------5-8-8-5---------5-5-8-8-5----|
G|-----------------------------------| x2
D|-----------------------------------|
A|-----------------------------------|
E|-----------------------------------|

Guitar 2
e|--------------------------------------------------------------------|
B|--------------------------------------------------------------------|
G|--5-5-5-5-5-5-5-5-----------------2-2-2-2-2-2-2-2-------------------|
D|--5-5-5-5-5-5-5-5-2-2-2-2-2-2-2-2-2-2-2-2-2-2-2-2-3-3-3-3-3-3-3-3---| x2
A|--3-3-3-3-3-3-3-3-2-2-2-2-2-2-2-2-0-0-0-0-0-0-0-0-3-3-3-3-3-3-3-3---|
E|------------------0-0-0-0-0-0-0-0-----------------1-1-1-1-1-1-1-1---|

Guitar 2
e|------|
B|------|
G|--5~--
D|--5~-- Let Ring
A|--3~--
E|------

Guitar 1
e|------------------------------|
B|------------------------------|
G|--5-5-5-5--5-5-5-5--5-5-5-5---|
D|--5-5-5-5--5-5-5-5--5-5-5-5---|  x4   Listen for strumming pattern.
A|--3-3-3-3--3-3-3-3--3-3-3-3---|
E|------------------------------|

Guitar 1
e|--8-7---------8-8-7-7--------------|
B|------5-8-8-5---------5-5-8-8-5----|
G|-----------------------------------|
D|-----------------------------------|
A|-----------------------------------|
E|-----------------------------------|

Guitar 1
e|--8-7----------|
B|------5-8-8-5~-|
G|---------------|
D|---------------|
A|---------------|
E|---------------|

Guitar 2
e|------|
B|------|
G|------|  End of Guitar 1, let ring.
D|--3~--
A|--3~--
E|--1~--

Guitar 1
e|--8-8-------------7-7----------8-8------------8-8----------7-7---------|
B|------8-8--x4---------8-8--x4------10-10--x4------8-8--x2------8-8--x2-|
G|-----------------------------------------------------------------------|
D|-----------------------------------------------------------------------| x2
A|-----------------------------------------------------------------------|
E|-----------------------------------------------------------------------|

Guitar 2
e|----------------------------------|
B|----------------------------------|
G|--5-------------------------------|
D|--5-x16--5------7------3----------| x2
A|--3------5-x16--7-x16--3-x16------|
E|---------3------5------1----------|

Break: ( i got the right notes and stuff, just not in the right places, so you guys can 
it ) thanks.)

Guitar 2
e|------------------------------|
B|------------------------------|
G|--5-5-5-5--5-5-5-5--5-5-5-5---|
D|--5-5-5-5--5-5-5-5--5-5-5-5---|  x2   Listen for strumming pattern.
A|--3-3-3-3--3-3-3-3--3-3-3-3---|
E|------------------------------|

Guitar 2
e|-----------------------------|
B|-----------------------------|
G|--9-9-9-9--9-9-9-9--5-5-5-5--|
D|--9-9-9-9--9-9-9-9--5-5-5-5--| x2   Listen for strumming pattern.
A|--7-7-7-7--7-7-7-7--3-3-3-3--|
E|-----------------------------|

Second time through, Guitar 1 plays:
Guitar 1
e|--8-7---------8-8-7-7--------------|
B|------5-8-8-5---------5-5-8-8-5----|
G|-----------------------------------|
D|-----------------------------------|
A|-----------------------------------|
E|-----------------------------------|

Guitar 1
e|--8-7----------|
B|------5-8-8-5~-|
G|---------------|
D|---------------|
A|---------------|
E|---------------|

Guitar 2
e|----------------------|
B|----------------------|
G|--9-9-9-9--9-9-9-5x---|
D|--9-9-9-9--9-9-9-5x---| Listen for strumming pattern
A|--7-7-7-7--7-7-7-3x---|
E|----------------------|

Pick Slide If You want :) ...

Guitar 1
e|--8-8-------------7-7----------8-8------------8-8----------7-7---------|
B|------8-8--x4---------8-8--x4------10-10--x4------8-8--x2------8-8--x2-|
G|-----------------------------------------------------------------------|
D|-----------------------------------------------------------------------| x2
A|-----------------------------------------------------------------------|
E|-----------------------------------------------------------------------|

Guitar 2
e|----------------------------------|
B|----------------------------------|
G|--5-------------------------------|
D|--5-x16--5------7------3----------| x2
A|--3------5-x16--7-x16--3-x16------|
E|---------3------5------1----------|

Guitar 1
e|--8-7---------8-8-7-7--------------|
B|------5-8-8-5---------5-5-8-8-5----|
G|-----------------------------------| x3
D|-----------------------------------|
A|-----------------------------------|
E|-----------------------------------|

Guitar 2
e|--------------------------------------------------------------------|
B|--------------------------------------------------------------------|
G|--5-5-5-5-5-5-5-5-----------------2-2-2-2-2-2-2-2-------------------|
D|--5-5-5-5-5-5-5-5-2-2-2-2-2-2-2-2-2-2-2-2-2-2-2-2-3-3-3-3-3-3-3-3---| x4
A|--3-3-3-3-3-3-3-3-2-2-2-2-2-2-2-2-0-0-0-0-0-0-0-0-3-3-3-3-3-3-3-3---|
E|------------------0-0-0-0-0-0-0-0-----------------1-1-1-1-1-1-1-1---|

Guitar 1
e|--8-7---------8-8-7-7-10-10-7-7-8-8-7-7-10-10-7-7-8~-|
B|------5-8-8-5----------------------------------------|
G|-----------------------------------------------------|
D|-----------------------------------------------------|
A|-----------------------------------------------------|
E|-----------------------------------------------------|
            
Submit corrections

comments powered by Disqus
↑ Back to top | I Hate Kate Tabs for Its Always Better. Lyrics for acoustic guitar and electric guitar. Tablatures and chords are parodies/interpretations of the original songs. You may use it for private study, scholarship, research or language learning purposes only