» » »

I Hate Kate, Its Always Better Tabs (ver.1)

Artists:  A B C D E F G H I J K L M N O P Q R S T U V W X Y Z # 

Its Always Better Tabs (ver.1)

I Hate Kate Tabs
 Rating:
4/5 (5 votes)
Its Always Better lessons Tabs too difficult? Try these video lessons and learn fast
                -------------------------------------------------------------------------------
                             It's Always Better - I Hate Kate
-------------------------------------------------------------------------------

Tuning:Standard

Intro
e|---------------------------------------------------------------------------|
B|---------------------------------------------------------------------------|
G|--5-5-5-5-5-5-5-5-----------------2-2-2-2-2-2-2-2--------------------------|
D|--5-5-5-5-5-5-5-5-2-2-2-2-2-2-2-2-2-2-2-2-2-2-2-2-3-3-3-3-3-3-3-3----------|
A|--3-3-3-3-3-3-3-3-2-2-2-2-2-2-2-2-0-0-0-0-0-0-0-0-3-3-3-3-3-3-3-3----------|
E|------------------0-0-0-0-0-0-0-0-----------------1-1-1-1-1-1-1-1----------|

Verse part 1
e|---------------------------------------------------------------------------|
B|---------------------------------------------------------------------------|
G|-5~------------------------------------------------------------------------|
D|-5~------------------------------------------------------------------------|
A|-3~------------------------------------------------------------------------|
E|---------------------------------------------------------------------------|

Verse part 2 (4 times)
e|---------------------------------------------------------------------------|
B|---------------------------------------------------------------------------|
G|-5-5-5-5-555-5--5-55-------------------------------------------------------|
D|-x-x-x-x-xxx-x--x-xx-------------------------------------------------------| 
A|-3-3-3-3-333-3--3-33-------------------------------------------------------|
E|---------------------------------------------------------------------------|

Pre-chorus
e|---------------------------------------------------------------------------|
B|---------------------------------------------------------------------------|
G|---------------------------------------------------------------------------|
D|------------------------------------------------------3~-------------------|
A|------------------------------------------------------3~-------------------|
E|------------------------------------------------------1~-------------------|

Chorus - strum these chords
e|---------------------------------------------------------------------------|
B|---------------------------------------------------------------------------|
G|--5---------------------5--------------------------------------------------|
D|--5----5----7----3------5----5----7----3---5-------------------------------|
A|--3----5----7----3------3----5----7----3---5-------------------------------|
E|-------3----5----1-----------3----5----1---3-------------------------------|


Intro

Verse

Pre-chorus

Chorus


Bridge - lead  (3 times)
e|---------------------------------------------------------------------------|
B|---------------------------------------------------------------------------|
G|------------------------------10-9-----------------------------------------| 
D|-10---9/10\9-10\9---9\7/9\7--------10-/-12---------------------------------|
A|---------------------------------------------------------------------------|
E|---------------------------------------------------------------------------|

Bridge - rhythm - strum these chords after bridge lead plays once through
e|---------------------------------------------------------------------------|
B|---------------------------------------------------------------------------|
G|---5-------5-------9------5------------------------------------------------|
D|---x-------x-------x------x------------------------------------------------|
A|---3-------3-------7------3------------------------------------------------|
E|---------------------------------------------------------------------------|

e|---------------------------------------------------------------------------|
B|---------------------------------------------------------------------------|
G|---5-------5-------9------10-----------------------------------------------|
D|---x-------x-------x------x-----------------------------------------\------|
A|---3-------3-------7------8-----------------------------------------\------|
E|--------------------------------------------------------------------\------|

Chorus

Intro twice

Outro
e|---------------------------------------------------------------------------|
B|---------------------------------------------------------------------------|
G|--------------------5~-----------------------------------------------------|
D|-3-3-3-3-3-3-3-3----5~-----------------------------------------------------|
A|-3-3-3-3-3-3-3-3----3~-----------------------------------------------------|
E|-1-1-1-1-1-1-1-1-----------------------------------------------------------|


| /  slide up
| \  slide down
| h  hammer-on
| p  pull-off
| ~  vibrato
| +  harmonic
| x  Mute note
===============================================================================
            
Submit corrections

comments powered by Disqus
↑ Back to top | I Hate Kate Tabs for Its Always Better. Lyrics for acoustic guitar and electric guitar. Tablatures and chords are parodies/interpretations of the original songs. You may use it for private study, scholarship, research or language learning purposes only