» » »

Passenger Tabs (ver.3)

Artists:  A B C D E F G H I J K L M N O P Q R S T U V W X Y Z # 

Passenger Tabs (ver.3)

Iggy Pop
Rating:
0/5 (0 votes)

Hard to play? Try these video lessons and learn fast.
                "(2)
for the 3 set of strokes, pick light, then hard twice
------------------------------|-------------------------------|
---5-5-5--7-7-7--3-3-3-5-5-5--|---5-5-5--7-7-7--3-3-3--5-5-5--|
---5-5-5--7-7-7--3-3-3-5-5-5--|---5-5-5--7-7-7--3-3-3--5-5-5--|
------------------------------|-------------------------------|
------------------------------|-------------------------------|
------------------------------|-------------------------------|

------------------------------|-------------------------------|
---5-5-5--7-7-7--3-3-3-5-5-5--|---5-5-5--7-7-7--3-3-3--5-5-5--|
---5-5-5--7-7-7--3-3-3-5-5-5--|---5-5-5--7-7-7--3-3-3--5-5-5--|
------------------------------|-------------------------------|
------------------------------|-------------------------------|
------------------------------|-------------------------------|

------------------------------|-------------------------------|
---5-5-5--7-7-7--3-3-3-5-5-5--|---5-5-5--7-7-7--3-3-3--5-5-5--|
---5-5-5--7-7-7--3-3-3-5-5-5--|---5-5-5--7-7-7--3-3-3--5-5-5--|
------------------------------|-------------------------------|
------------------------------|-------------------------------|
------------------------------|-------------------------------|


and just repeat that over and over. listen to the song for timing. this is my first tab so i hope its accurate. please comment and correct if needed. mind you, i tabbed this on an acoustic.
"            
Hard to play? Try these video lessons and learn fast. | Correct




comments powered by Disqus
↑ Back to top | Tablatures and chords are parodies/interpretations of the original songs. You may use it for private study, scholarship, research or language learning purposes only