» » »

I'm Bored Tabs (ver.1)

Artists:  A B C D E F G H I J K L M N O P Q R S T U V W X Y Z # 

I'm Bored Tabs (ver.1)

Iggy Pop
Rating:
0/5 (0 votes)

Hard to play? Try these video lessons and learn fast.
                I was surprised to see there wasn't a good Tab of this song online... maybe because it's 
not too hard to figure out. Anyway, here it is...

INTRO - D7-type Bar Chord:

e ----------------------|
B -----10-10p9----8-8-7-|
G ---11---11p9---9--9-7-|
D --9-----------7-----7-|
A ----------------------|
E ----------------------|

VERSE

RIFF 1 - Using Fm-type Bar Chord (Repeat 8 times):
e --------------------------------||
B -------------7-------8-7--------||
G ---------7-9-7-------7-7-9-7----||
D -9--9--9-7-9---9--9------9-7----||
A -9--9--9-------9--9-------------||
E -7--7----------7--7-------------||


RIFF 2:
e -----------------------------|-----------------------------|
B -6--6--6-4-6-4---------4-----|-6--6--6-4-6-4---------------|
G -6--6--6-4-6-4---------4-----|-6--6--6-4-6-4-6--6-6--6-6---|
D -6--6--6-4-6-4-6--6--6---6---|-6--6--6-4-6-4-7--7-7--7-7---|
A -4--4--4-------6--6--6---6---|-4--4--4-------7--7-7--7-7---|
E ---------------4--4--4---4---|---------------5--5-5--5-5---|


RIFF 1 - (Repeat 2 times):
e --------------------------------||
B -------------7-------8-7--------||
G ---------7-9-7-------7-7-9-7----||
D -9--9--9-7-9---9--9------9-7----||
A -9--9--9-------9--9-------------||
E -7--7----------7--7-------------||


CHORUS:
                 Strumming...    Strumming...
e -----------------------------|-------------------------|
B -6--6--6-4-6-4---------------|-------------------------|
G -6--6--6-4-6-4-6--6--6---6---|-5----------4------------|
D -6--6--6-4-6-4-7--7--7---7---|-6----------5------------|
A -4--4--4-------7--7--7---7---|-6----------5------------|
E ---------------5--5--5---5---|-4----------3------------|


e ------------------------------------|------------------------------------|
B ----3-3-3-3-2-2-2----3-3-3-3-2-2-2--|----5-5-5-5-4-4-4----5-5-5-5-4-4-4--|
G ---4--4-4-4-2-2-2---4--4-4-4-2-2-2--|---6--6-6-6-4-4-4---6--6-6-6-4-4-4--|
D --2----------------2----------------|--4----------------4----------------|
A ------------------------------------|------------------------------------|
E ------------------------------------|------------------------------------|

Repeat from INTRO, skipping from RIFF 1 straight to the CHORUS.
            
Hard to play? Try these video lessons and learn fast. | Correct




comments powered by Disqus
↑ Back to top | Tablatures and chords are parodies/interpretations of the original songs. You may use it for private study, scholarship, research or language learning purposes only