» » »

Facade Bass tabs (ver.1)

Artists:  A B C D E F G H I J K L M N O P Q R S T U V W X Y Z # 

Facade Bass tabs (ver.1)

Iggy Pop
Rating:
0/5 (0 votes)

Tabs too difficult? Try these video lessons and learn fast.
                                                   Iggy Pop
                                    Facade
                                  "Avenue B"


Intro:
E-3-3-----------------|
A-----5-5--7-7--5-5---|
D---------------------|
G---------------------|

E-3-3-----------------|
A-----5-5--3-3--5-5-5-|
D---------------------|
G---------------------|

Variations:
E-3-3-----------------|
A-----5-5--3-3--2-3-5-|
D---------------------|
G---------------------|

Later:
E-3-3-----------------|
A-----5-5--7-7--5-5---|
D---------------------|
G---------------------|

E-3-3-----------------|
A-----5-5--3-3--2-3-4-|
D---------------------|
G---------------------|

E------------------------------------|
A-5555--4444--33333--22222-3-4-5-5-5-|
D------------------------------------|
G------------------------------------|

(not sure at this point)
E-------------5--|
A-3--5--4--2-----|
D----------------|
G----------------|
            
Tabs too difficult? Try these video lessons and learn fast.


comments powered by Disqus
↑ Back to top | Tablatures and chords are parodies/interpretations of the original songs. You may use it for private study, scholarship, research or language learning purposes only