» » »

Idol Billy, Dancing With Myself Tabs (ver.1)

Artists:  A B C D E F G H I J K L M N O P Q R S T U V W X Y Z # 

Dancing With Myself Tabs (ver.1)

Idol Billy Tabs
 Rating:
4/5 (4 votes)
Dancing With Myself lessons Tabs too difficult? Try these video lessons and learn fast
1
                e---------------------------
h---------------7-----------
g--9-9-9-9-9-8-9--9---------
D---------------------------
A---------------------------
E---------------------------



Just listen to the sound and you get the rythum, it's quite easy!

And the other riff, which is great:

e------------------------------------------------------------
h------------------------------------------------------------
g-------------------------2s4----------------------------2h4b
D---------2-2-2-2-4-4-4-4--------------2-2-2-2-4-4-4-4-------
A-2-2-2-2----------------------2-2-2-2-----------------------
E------------------------------------------------------------

The chords of the song are:

|E|E|B|A|
            
Submit corrections

comments powered by Disqus
↑ Back to top | Idol Billy Tabs for They (Will Always) Die. Lyrics for acoustic guitar and electric guitar. 1 Tablatures and chords are parodies/interpretations of the original songs. You may use it for private study, scholarship, research or language learning purposes only