» » »

Idol Billy, Rebel Yell Tabs (ver.1)

Artists:  A B C D E F G H I J K L M N O P Q R S T U V W X Y Z # 

Rebel Yell Tabs (ver.1)

Idol Billy Tabs
Rating:
0/5 (0 votes)
Rebel Yell lessons Tabs too difficult? Try these video lessons and learn fast
                Lines: 100
References: 



	Does anyone have any Tab's for Bill Idol??? If so please
post em'

Here ya go !

Rebel Yell - Billy Idol

Key:

a.h = artificial harmonic
fbk = feedback + wangbar
 Z\ = pick slide


Intro.
                                                                       a.h
E +-10-10-10-10-10-10-10-10--+--10-10-10-10-10-10------+--------------------
B |-10-10-10-10-10-10-10-10--|--10-10-10-10-10-10------|--------------------
G |--------------------------|-------------------------|--------------------
D |-------------------7--9---|-------------------------|--------------------
A |----------9---------------|-----------9-------------|-------------5-5~---
E +-7------------------------+--7------------------0-2-+-3-3-3-3-3-3--------

   Play x 3                                            ||
Verse.

    (Bm)                (Dmaj)               (D or G???)        (E???)
E ---------------------------------------------------------------------
B --7---7-----7------|---7---7-----7------|--7---7-----7------|--7--7--
G --7---7-----7------|---7---7-----7------|--7---7-----7------|--7--7--
D ----9---9-9---9-9--|-----7---7-7---7-7--|----5---5-5---5-5--|--5--5--
A -------------------|--------------------|-------------------|--7--7--
E ---------------------------------------------------------------------
     (play x 4)          (play x 2)           (play once)
                     .                    .
  Last night a       . Last night a       . pumping on the    .  floor 
  little angel came  . little dancer came .  
  dancing to my door .                    .


Chorus.

    D5   A5    B5             Bmin
E ----------------------------7---7--------------------------7---7----------
B --------------------x--x-x--7---7------------------x--x-x--7---7----------
G --7-7---------------x--x-x--7---7------------------x--x-x--7---7----------
D --7-7--7-7---9--9---x--x-x------------------9--9---x--x-x-----------------
A --5-5--7-7---9--9---------------------------9--9--------------------------
E -------5-5---7--7------------------5-7-5----7--7-------------------5-7-5--

    Because...  In the midnight hour she cried "more more more."
   
E -------------------------------------------------
B --7---x--x-x--7-----------7--7---x--x-x----7--7--
G --7---x--x-x--7-----------7--7---x--x-x----7--7--  (play again)
D --7---x--x-x--7-----------5--5---x--x-x----5--5--
A -------------------------------------------7--7--
E ------------------5-7-5--------------------------

      With a rebel yell, she cried "more more more." 

The rest just re-hashes these parts.

---

NOTE:

Intro -  It's best to play this one without a plectrum.  For the left 
         hand use your pinky on the high E, and the third finger on the B.
         Barre the 7th fret with your first finger, using your second finger
         to play the arpeggio.

         For the right hand I use my thumb to pick the arpeggio notes, 
         and my first and second fingers to play the constant double-note
         part.
         

---

I may transcribe the solo in a few days, but don't hold your breath.
I'll also tab Flesh For Fantasy if anyone wants it.

Mr.Scary (Gary Chapman)
----------------------------    NOTE:  Stay tuned for
            
Submit corrections

comments powered by Disqus
↑ Back to top | Idol Billy Tabs for Rebel Yell. Lyrics for acoustic guitar and electric guitar. Tablatures and chords are parodies/interpretations of the original songs. You may use it for private study, scholarship, research or language learning purposes only