» » »

Idlewild, Roseability Tabs (ver.2)

Artists:  A B C D E F G H I J K L M N O P Q R S T U V W X Y Z # 

Roseability Tabs (ver.2)

Idlewild Tabs
 Rating:
4/5 (4 votes)
Roseability lessons Tabs too difficult? Try these video lessons and learn fast
1
                iDLEWiLD
Roseability

Guitar tuned down half a step (Eb, Ab, Db, Gb, Bb, Eb)



Main Riff (Guitar 1)
Ro-oh-ose Abil-i-ty...
Eb-0--0--0-0-0--0--0--0--0---0---0---0--0--0---0--0--0--0--|
Bb-0--0--0-0-0--0--0--0--0---0---0---0--0--0---0--0--0--0--|
Gb-0--0--0-0-0--0--0--0--0---0---0---0--0--0---0--0--0--0--|
Db-7--7--7-7-7--7--7--7--7---9---9---9--9--9---10-10-10-9--|
Ab-7--7--7-7-7--7--7--7--7---10--10--10-10-10--10-10-10-10-|
Eb-5--5--5-5-5--5--5--5--5---8---8---8--8--8---8--8--8--8--| Play x 4

Main Riff (Guitar 2)
Eb--------------------------------------------------:
Bb--------------------------------------------------:
Gb-12-12-12-12-12-12-12-12-19-19-19-17-17-17-16-16--:
Db--------------------------------------------------:
Ab-10-10-10-10-10-10-10-10-17-17-17-15-15-15-14-14--:
Eb--------------------------------------------------:

:---------------------------------------------------|
:---------------------------------------------------|
:--16-16-16-16-16-16-16-16-17-17-17-17-17-17-17-17--|
:---------------------------------------------------|
:--14-14-14-14-14-14-14-14-15-15-15-15-15-15-15-15--|
nklp:---------------------------------------------------| Play x 4

Chorus Riff
You've got off with too much now...
Eb-------------------------------------------------------------:
Bb-------------------------------------------------------------:
Gb------------------9-7--5-4-------------------9-9-9-11-12-12--:
Db-5-5-5-5-5-5-5-5------------7-7-7-7-7-7-7-7------------------:
Ab-5-5-5-5-5-5-5-5--7-5--3-2--7-7-7-7-7-7-7-7--7-7-7-9--10-10--:
Eb-3-3-3-3-3-3-3-3------------5-5-5-5-5-5-5-5------------------:

:--------------------------------------------------------------|
:--------------------------------------------------------------|
:------------------14--16-16-14-------------------4-4--5-5--7--|
:-5-5-5-5-5-5-5-5----------------7-7-7-7-7-7-7-7---------------|
:-5-5-5-5-5-5-5-5--12--14-14-12--7-7-7-7-7-7-7-7--2-2--3-3--5--|
:-3-3-3-3-3-3-3-3----------------5-5-5-5-5-5-5-5---------------| Play x 2

Verse Riff
Gertrude Stein said "That's enough"...
Eb--------------------------------------------------------------------------------|
Bb--------------------------------------------------------------------------------|
Gb--------------------------------------------------------------------------------|
Db--9-9-9-x-x-9-9-9-x-x-9-9-9-x-x-9-x-x-7-x-x-5-5-5-x-x-5-5-5-x-x-5-5-5-x-x-5-5-5-|
Ab--7-7-7-x-x-7-7-7-x-x-7-7-7-x-x-7-x-x-7-x-x-5-5-5-x-x-5-5-5-x-x-5-5-5-x-x-5-5-5-|
Eb--7-7-7-x-x-7-7-7-x-x-8-8-8-x-x-7-x-x-5-x-x-3-3-3-x-x-3-3-3-x-x-3-3-3-x-x-3-3-3-| Play x 4

Then play Main Riff x 4

Then Play (Fill A):
Eb--------------|
Bb---0-1---0-1--|
Gb-0-----0------|

Then play Chorus Riff x 2
Then play Verse Riff x 2
Then Play Verse Riff x 4, with the second guitar playing the next riff:

Gb--------------------12#--|
Db--9#----10#--9#-7#-------|
Ab--------------------10#--|
Eb--7#----8#---7#-5#-------|

Then play Main Riff x 2
Then play Fill A x 2
Then play Chorus Riff x 2
End on:
Gb--0--|
Db--2--|
Ab--2--|
Eb--0--|
            
Submit corrections

comments powered by Disqus
↑ Back to top | Idlewild Tabs for Roseability. Lyrics for acoustic guitar and electric guitar. 1 Tablatures and chords are parodies/interpretations of the original songs. You may use it for private study, scholarship, research or language learning purposes only