» » »

Idlewild, Roseability Tabs (ver.1)

Artists:  A B C D E F G H I J K L M N O P Q R S T U V W X Y Z # 

Roseability Tabs (ver.1)

Idlewild Tabs
 Rating:
4/5 (4 votes)
Roseability lessons Tabs too difficult? Try these video lessons and learn fast
1
                Idlewild - roseability

THIS COMES  IN AFTER THE  DRUM INTRO:

E --4-4-4-4-4-4-4-4-4-4-4-4-4-4-4-4--------7-7-7-7-7-7-7-7-7-7-7-7-7-7-7-7-------------------------
B --4-4-4-4-4-4-4-4-4-4-4-4-4-4-4-4--------7-7-7-7-7-7-7-7-7-7-7-7-7-7-7-7-------------------------
G --4-4-4-4-4-4-4-4-4-4-4-4-4-4-4-4--------7-7-7-7-7-7-7-7-7-7-7-7-7-7-7-7-------------------------
D --6-6-6-6-6-6-6-6-6-6-6-6-6-6-6-6--------9-9-9-9-9-9-9-9-9-9-9-9-9-9-9-9------------------------
A --6-6-6-6-6-6-6-6-6-6-6-6-6-6-6-6--------9-9-9-9-9-9-9-9-9-9-9-9-9-9-9-9-------------------------
E --4-4-4-4-4-4-4-4-4-4-4-4-4-4-4-4--------7-7-7-7-7-7-7-7-7-7-7-7-7-7-7-7-------------------------


CHORUS PLAYED WITH DISTORTION:

E ---2-2-2-2-2-2-2-2------4-4-4-4-4-4-4-4-------4-4-4-4-4-4-4-4-4-4-4-4-4-4-4-4--------------------------
B ---2-2-2-2-2-2-2-2------4-4-4-4-4-4-4-4-------4-4-4-4-4-4-4-4-4-4-4-4-4-4-4-4-----------------------
G ---2-2-2-2-2-2-2-2------6-6-6-6-6-6-6-6-------4-4-4-4-4-4-4-4-4-4-4-4-4-4-4-4---------------
D ---4-4-4-4-4-4-4-4------6-6-6-6-6-6-6-6-------6-6-6-6-6-6-6-6-6-6-6-6-6-6-6-6------------
A ---4-4-4-4-4-4-4-4----- 4-4-4-4-4-4-4-4-------6-6-6-6-6-6-6-6-6-6-6-6-6-6-6-6------------------------------
E  ---2-2-2-2-2-2-2-2-----4--4-4-4-4-4-4-4------4-4-4-4-4-4-4-4-4-4-4-4-4-4-4-4-------------------------------


GUTREV STEIN SAID THAT’S ENOUGH………………

E -6-6-6-6-6-6-6-6-6-6-6-6-6-6-6-6-----2-2---X-X-X-X----2-2---X-X-X-X---2-2--X-X-X-X----2-2--XXXX-
B -6-6-6-6-6-6-6-6-6-6-6-6-6-6-6-6-----2-2---X-X-X-X----2-2---X-X-X-X---2-2--X-X-X-X----2-2--XXXX-
G -8-8-8-8-8-8-8-8-8-8-8-8-8-8-8-8-----2-2---X-X-X-X----2-2---X-X-X-X---2-2--X-X-X-X----2-2--XXXX-
D -8-8-8-8-8-8-8-8-8-8-8-8-8-8-8-8-----4-4---X-X-X-X----4-4---X-X-X-X---4-4--X-X-X-X----4-4--XXXX-
A -6-6-6-6-6-6-6-6-6-6-6-6-6-6-6-6-----4-4---X-X-X-X----4-4---X-X-X-X---4-4--X-X-X-X----4-4--XXXX-
E  -6-6-6-6-6-6-6-6-6-6-6-6-6-6-6-6-----2-2---X-X-X-X----2-2---X-X-X-X---2-2--X-X-X-X----2-2--XXXX

E -6-6-6-6-6-6-6-6-6-6-6-6-6-6-6-6-----2-2---X-X-X-X----2-2---X-X-X-X---2-2--X-X-X-X----2-2--XXXX-
B -6-6-6-6-6-6-6-6-6-6-6-6-6-6-6-6-----2-2---X-X-X-X----2-2---X-X-X-X---2-2--X-X-X-X----2-2--XXXX-
G -8-8-8-8-8-8-8-8-8-8-8-8-8-8-8-8-----2-2---X-X-X-X----2-2---X-X-X-X---2-2--X-X-X-X----2-2--XXXX-
D -8-8-8-8-8-8-8-8-8-8-8-8-8-8-8-8-----4-4---X-X-X-X----4-4---X-X-X-X---4-4--X-X-X-X----4-4--XXXX-
A -6-6-6-6-6-6-6-6-6-6-6-6-6-6-6-6-----4-4---X-X-X-X----4-4---X-X-X-X---4-4--X-X-X-X----4-4--XXXX-
E  -6-6-6-6-6-6-6-6-6-6-6-6-6-6-6-6-----2-2---X-X-X-X----2-2---X-X-X-X---2-2--X-X-X-X----2-2--XXXX


THEN IT GOES BACK TO THIS……
             ROSE-

E --4-4-4-4-4-4-4-4-4-4-4-4-4-4-4-4--------7-7-7-7-7-7-7-7-7-7-7-7-7-7-7-7-------------------------
B --4-4-4-4-4-4-4-4-4-4-4-4-4-4-4-4--------7-7-7-7-7-7-7-7-7-7-7-7-7-7-7-7-------------------------
G --4-4-4-4-4-4-4-4-4-4-4-4-4-4-4-4--------7-7-7-7-7-7-7-7-7-7-7-7-7-7-7-7-------------------------
D --6-6-6-6-6-6-6-6-6-6-6-6-6-6-6-6--------9-9-9-9-9-9-9-9-9-9-9-9-9-9-9-9------------------------
A --6-6-6-6-6-6-6-6-6-6-6-6-6-6-6-6--------9-9-9-9-9-9-9-9-9-9-9-9-9-9-9-9-------------------------
E --4-4-4-4-4-4-4-4-4-4-4-4-4-4-4-4--------7-7-7-7-7-7-7-7-7-7-7-7-7-7-7-7-------------------------


JUST BEFORE THE CHORUS THERE IS A LITTLE LEAD BIT.I THINK IT GOES LIKE THIS….
E -------------------------------------------------
B -------------------------------------------------
G ----------3----------3---------------------------
D ------4----------4-------4------------------------
A --2----------2-------------------------------------
            
Submit corrections

comments powered by Disqus
↑ Back to top | Idlewild Tabs for Roseability. Lyrics for acoustic guitar and electric guitar. 1 Tablatures and chords are parodies/interpretations of the original songs. You may use it for private study, scholarship, research or language learning purposes only