» » »

A Modern Way Of Letting Go Bass tabs (ver.2)

Artists:  A B C D E F G H I J K L M N O P Q R S T U V W X Y Z # 

A Modern Way Of Letting Go Bass tabs (ver.2)

Idlewild
Rating:
0/5 (0 votes)

Hard to play? Try these video lessons and learn fast.
                D|1-3-3-3-3-1-1-1-1-6-6-6-6-1-1-1-1-3-3-3-3-1-1-1-1-6-6-6-6-------------|
A|----------------------------------------------------------------------|
D|----------------------------------------------------------------------|
G|----------------------------------------------------------------------|

D|---------------3-3-3-3-1-1-1-1---------------3-3-3-3-1-1-1-1----------| X2
A|4-4-4-4-1-1-1-1---------------4-4-4-4-1-1-1-1-------------------------|
D|----------------------------------------------------------------------|
G|----------------------------------------------------------------------|

D|3-3-3-3-6-6-6-6-------8-8-8-8-3-3-3-3-6-6-6-6-------8-8-8-8-----------|
A|---------------6-6-6-6-----------------------6-6-6-6------------------|
D|----------------------------------------------------------------------|
G|----------------------------------------------------------------------|

D|----------------------------------------------------------------------|
A|4-4-4-4-4-4-4-4-------------------------------------------------------|
D|----------------------------------------------------------------------|
G|----------------------------------------------------------------------|

D|3-3-3-3-3-3-3-3-6-6-6-6-6-6-6-6---------------------------------------| X2
A|-------------------------------6-6-6-6-6-6-6-6-4-4-4-4-4-4-4-4--------|
D|----------------------------------------------------------------------|
G|----------------------------------------------------------------------|

The guitar plays the intro again and the bass joins in half way

D|1-3-3-3-3-1-1-1-1-6-6-6-6-1-1-1-1-------------------------------------|
A|----------------------------------------------------------------------|
D|----------------------------------------------------------------------|
G|----------------------------------------------------------------------|

D|---------------3-3-3-3-1-1-1-1---------------3-3-3-3-1-1-1-1----------| X2
A|4-4-4-4-1-1-1-1---------------4-4-4-4-1-1-1-1-------------------------|
D|----------------------------------------------------------------------|
G|----------------------------------------------------------------------|

D|3-3-3-3-6-6-6-6-------8-8-8-8-3-3-3-3-6-6-6-6-------8-8-8-8-----------|
A|---------------6-6-6-6-----------------------6-6-6-6------------------|
D|----------------------------------------------------------------------|
G|----------------------------------------------------------------------|


D|----------------------------------------------------------------------|
A|4-4-4-4-4-4-4-4-------------------------------------------------------|
D|----------------------------------------------------------------------|
G|----------------------------------------------------------------------|

D|3-3-3-3-3-3-3-3-6-6-6-6-6-6-6-6---------------------------------------| X2
A|-------------------------------6-6-6-6-6-6-6-6-4-4-4-4-4-4-4-4--------|
D|----------------------------------------------------------------------|
G|----------------------------------------------------------------------|

D|1-3-3-3-3-1-1-1-1-6-6-6-6-1-1-1-1-3-3-3-3-1-1-1-1-6-6-6-6-------------|
A|----------------------------------------------------------------------|
D|----------------------------------------------------------------------|
G|----------------------------------------------------------------------|

If you confused at all where parts come in and out you can check out the video i made of 
playing this song along to the track.
Or if funky guitar playing and dancing is your thing then look no further than duff!

Enjoy
            
Hard to play? Try these video lessons and learn fast. | Correct




comments powered by Disqus
↑ Back to top | Tablatures and chords are parodies/interpretations of the original songs. You may use it for private study, scholarship, research or language learning purposes only