» » »

Idlewild, A Modern Way Of Letting Go Tabs (ver.1)

Artists:  A B C D E F G H I J K L M N O P Q R S T U V W X Y Z # 

A Modern Way Of Letting Go Tabs (ver.1)

Idlewild Tabs
 Rating:
3.4/5 (9 votes)
A Modern Way Of Letting Go lessons Tabs too difficult? Try these video lessons and learn fast
                 
E|------------------------------------------------------------|
B|------------------------------------------------------------|
G|------------------------------------------------------------|
D|--1/3-3-3-3\1-1-1-1/6-6-6-6\1-1-1-1/3-3-3-3\1-1-1-1/6-6-6-6-|
A|--1/3-3-3-3\1-1-1-1/6-6-6-6\1-1-1-1/3-3-3-3\1-1-1-1/6-6-6-6-|
D|--1/3-3-3-3\1-1-1-1/6-6-6-6\1-1-1-1/3-3-3-3\1-1-1-1/6-6-6-6-|
  
Second guitar plays same as above after first time

Guitar 1
E|----------------------------------|
B|----------------------------------|
G|--6-6-6-6-6-6-6-6-3-3-3-3-3-3-3-3-|
D|--6-6-6-6-6-6-6-6-3-3-3-3-3-3-3-3-|
A|--4-4-4-4-4-4-4-4-1-1-1-1-1-1-1-1-|
D|----------------------------------|

E|-----------------------------------|
B|-----------------------------------|
G|-----------------------------------|
D|--3-3-3-3-3-3-3-3-1-1-1-1-1-1-1-1--|
A|--3-3-3-3-3-3-3-3-1-1-1-1-1-1-1-1--|
D|--3-3-3-3-3-3-3-3-1-1-1-1-1-1-1-1--|


Guitar 2 
E|---------------------------------------------------|
B|---------------------------------------------------|
G|--12/13-13-13-13-13-13-13-12/13-13-13-13-13-13-13--|
D|---------------------------------------------------|
A|--10/11-11-11-11-11-11-11-10/11-11-11-11-11-11-11--|
D|---------------------------------------------------|

E|---------------------------------------------------|
B|---------------------------------------------------|
G|--12/13-13-13-13-13-13-13-12-12-12-10-10-10-10-10--|
D|---------------------------------------------------|
A|--10/11-11-11-11-11-11-11-10-10-10--8--8--8--8--8--|
D|---------------------------------------------------|


Guitar 1 
E|----------------------------------|
B|----------------------------------|
G|----------------------------------|
D|---3--3--3-3-3-6-6-6-6-6-6-6-6-6--|
A|---3--3--3-3-3-6-6-6-6-6-6-6-6-6--|
D|---3--3--3-3-3-6-6-6-6-6-6-6-6-6--|

E|----------------------------------|
B|----------------------------------|
G|---8--8--8-8-8--------------------|
D|---8--8--8-8-8-8-8-8-8-8-8-8-8-8--|
A|---6--6--6-6-6-8-8-8-8-8-8-8-8-8--|
D|---------------8-8-8-8-8-8-8-8-8--|


Guitar 2
E|----------------------------------------|
B|----------------------------------------|
G|--10--10--10-10-10-10-10-12-8-10-10-10--|
D|----------------------------------------|
A|---8---8---8--8--8--8--8-10-6--8--8--8--|
D|----------------------------------------|

E|-----------------------------------|
B|-----------------------------------|
G|--8--8--8-8-8-10-10-10-10-10-10-8--|
D|-----------------------------------|
A|--6--6--6-6-6--8--8--8--8--8--8-6--|
D|-----------------------------------|


Guitar 1   
E|-----------------------------------|
B|-----------------------------------|
G|--6-6-6-6-6-6-6-6-6-6-6-6-6-6-6-6--|
D|--6-6-6-6-6-6-6-6-6-6-6-6-6-6-6-6--|
A|--4-4-4-4-4-4-4-4-4-4-4-4-4-4-4-4--|
D|-----------------------------------|


Guitar 2  
E|---------11------|
B|-----13-----13---|
G|--10-------------|
D|-----------------|
A|-----------------|
D|-----------------|x2


Guitar 1   
E|-----------------------------------|
B|-----------------------------------|
G|-----------------------------------|
D|--3-3-3-3-3-3-3-3-3-3-3-3-3-3-3-3--|
A|--3-3-3-3-3-3-3-3-3-3-3-3-3-3-3-3--|
D|--3-3-3-3-3-3-3-3-3-3-3-3-3-3-3-3--|
   
E|-----------------------------------|
B|-----------------------------------|
G|-----------------------------------|
D|--6-6-6-6-6-6-6-6-6-6-6-6-6-6-6-6--|
A|--6-6-6-6-6-6-6-6-6-6-6-6-6-6-6-6--|
D|--6-6-6-6-6-6-6-6-6-6-6-6-6-6-6-6--|

E|-----------------------------------|
B|-----------------------------------|
G|--8-8-8-8-8-8-8-8-8-8-8-8-8-8-8-8--|
D|--8-8-8-8-8-8-8-8-8-8-8-8-8-8-8-8--|
A|--6-6-6-6-6-6-6-6-6-6-6-6-6-6-6-6--|
D|-----------------------------------|
        
E|----------------------------------|
B|----------------------------------|
G|--6-6-6-6-6-6-6-6-6-6-6-6-6-6-6-6-|
D|--6-6-6-6-6-6-6-6-6-6-6-6-6-6-6-6-|
A|--4-4-4-4-4-4-4-4-4-4-4-4-4-4-4-4-|
D|----------------------------------|


Guitar 2  
E|-----------------------------------------------|
B|-----------------------------------------------|
G|--10-10-10-10-10-10-10-10-10-10-10-10-10-12-8--|
D|-----------------------------------------------|
A|---8--8--8--8--8--8--8--8--8--8--8--8--8-10-6--|
D|-----------------------------------------------|

E|------------------------------------------------------------|
B|------------------------------------------------------------|
G|--8-8-8-8-8-8-8-8-8-8-8-8-8-17--15--15-15-15-15-15-15-15-15-|
D|------------------------------------------------------------|
A|--6-6-6-6-6-6-6-6-6-6-6-6-6-15--13--13-13-13-13-13-13-13-13-|
D|------------------------------------------------------------|
 
E|--------------------------------------------------|
B|--------------------------------------------------|
G|--15-15-15-15-15-13--10--10-10-10-10-10-10-10-10--|
D|--------------------------------------------------|
A|--13-13-13-13-13-11---8---8--8--8--8--8--8--8--8--|
D|--------------------------------------------------|
        
E|--------------------|
B|--------------------|
G|--10-10-10-10-10-8--|
D|--------------------|
A|---8--8--8--8--8-6--|
D|--------------------|

Back to intro
            
Submit corrections

comments powered by Disqus
↑ Back to top | Idlewild Tabs for A Modern Way Of Letting Go. Lyrics for acoustic guitar and electric guitar. Tablatures and chords are parodies/interpretations of the original songs. You may use it for private study, scholarship, research or language learning purposes only