>
 >
A Lifetime In A Week

A Lifetime In A Week Guitar Tabs

Ice Nine Kills - A Lifetime In A Week chords, tabs, tablatures, lyrics

Guitar lessons | Add/correct | Request | Top 50 tabs Artists:  A B C D E F G H I J K L M N O P Q R S T U V W X Y Z 0-9

A Lifetime In A Week Guitar Tabs – Ice Nine Kills

CD, Sheet music, Poster

Do you like A Lifetime In A Week? Share with your friends now
TabsTabs v2Tabs v3Tabs v4
Sorry, dunno why I said Drop C 'cause this is in D Standard.
(D,G,C,F,A,D)
This is much more accurate than the other tab on here. 
So anyway, enjoy.


|-0-000-0-000-3333-11111-0000-33333-333333-333333-|
|-0-111-0-111-1111-11111-1111-11111-000000-333333-|
|-2-222-2-222-2222-22222-0000-00000-000000-000000-| x2
|-2-222-2-222------------2222-22222-000000-000000-|
|------------------------3333-33333-222222-222222-|
|-----------------------------------333333-333333-|

|---0----0---------0-|
|----1----1---1------|
|--0---0-----0-0-00--| x2
|-3---3-3---2--------|
|--------------------|
|--------------------|

|-------------------12---------------------12h13p12-|
|------13-------------13------13--------------------|
|-10-12--12-10-12-10-----10-12--12-10-12-10---------|
|---------------------------------------------------|
|---------------------------------------------------|
|---------------------------------------------------|

|-------------------12h13p12-10-10-10h12p10-8-8-8/7-|
|------13-------------------------------------------|
|-10-12--12-10-12-10--------------------------------|
|---------------------------------------------------|
|---------------------------------------------------|
|---------------------------------------------------|

|-----------------------------------------------------------------|
|-----------------------------------------------------------------|
|-55-xxxx-55-xxxx-5-44-xxxx-44-xxxx-4-----------------------------|
|-55-xxxx-55-xxxx-5-55-xxxx-55-xxxx-5-22-xxx-22-xxx-2-33333-55555-|
|-33-xxxx-33-xxxx-3-22-xxxx-22-xxxx-2-22-xxx-22-xxx-2-33333-55555-|
|-------------------------------------00-xxx-00-xxx-0-11111-33333-|

|------------------------------------------------|
|------------------------------------------------|
|-555-xxxx-5x5x5-44-xxxx-4x4---------------------|
|-555-xxxx-5x5x5-55-xxxx-5x5-333333333-555555555-|
|-333-xxxx-3x3x3-22-xxxx-2x2-333333333-555555555-|
|----------------------------111111111-333333333-|

The hammer on/pull off parts aren't correct but add effect.
|-12--12--12--12h13p12p10-10--10--10--12h13p12-12--12--12--12h13p12p10-10-10-12-10-13-12-10-8-|
|---13--13--13--------------13--13--13-----------13--13--13-----------------------------------|
|---------------------------------------------------------------------------------------------|
|---------------------------------------------------------------------------------------------|
|---------------------------------------------------------------------------------------------|
|---------------------------------------------------------------------------------------------|

|-------------------20--20--20--20----------------------------------|
|-17--17--17--17--18--18--18--18--17--17--17--17--15-17-15-13-12-10-|
|---17--17--17--17------------------17--17--17----------------------|
|-------------------------------------------------------------------|
|-------------------------------------------------------------------|
|-------------------------------------------------------------------|

|------------10-12--10-12-10-8-8-10-13-12-10-------------|
|-13-10-12-13-----13------------------------13-10--------|
|------------------------------------------------12-10-9-|
|--------------------------------------------------------|
|--------------------------------------------------------|
|--------------------------------------------------------|

|---------------------------------------------12-------12-10-----12-------12-10-8-|
|-10-12-13/20-------20-18-17-18-17-15-13--------13-----------------13-------------|
|-------------14-16----------------------10-12----12-12-----12-12----12-12--------|
|---------------------------------------------------------------------------------|
|---------------------------------------------------------------------------------|
|---------------------------------------------------------------------------------|

|---0-1-0-0-----1-0-0----3--3-------------|
|----1---1----1----1------5--5--6-5---3-5-|
|--0---------0-0-----------5--------------|
|-----------0---------3-3------3---3-3----|
|-3---------------------------------------|
|-----------------------------------------|





Comments


Popular Ice Nine Kills tabs & chords
A Lifetime In A Week 2 Tabs
Build A Bridge And Jump Off Intro Tabs
I Do And I Don't Tabs
Last Words Intro Tabs
Last Words Intro 2 Tabs
The Greatest Story Ever Told Tabs
The Greatest Story Ever Told Intro Tabs
What I Never Learned In Study Hall Tabs
What I Should Have Learned In Study Hall 1 Tabs
What I Should Have Learned In Study Hall Ukulele


Song lyrics



↑ Back to top | Tablatures and chords are parodies/interpretations of the original songs. You may use it for private study, scholarship, research or language learning purposes only
© 2014 AZChords.com Contact us | Privacy policy | DMCA | Add/correct tabs | Request tabs | Top 50 tabs