» » »

Iced Earth, Nightmares Tabs (ver.1)

Artists:  A B C D E F G H I J K L M N O P Q R S T U V W X Y Z # 

Nightmares Tabs (ver.1)

Iced Earth Tabs
 Rating:
4/5 (4 votes)
Nightmares lessons Tabs too difficult? Try these video lessons and learn fast
                Iced Earth:  Nightmares



                          The Frozen Palace



Tuning: Eb

Riff 1                         x4
eb|-----------------------------|
Bb|-----------------------------|
Gb|-----------------------------|
Db|-----------------------------|
Ab|---4-----4---4---5-----5---5-|
Eb|-2-----2---2---3-----3---3---|


Riff 2           x3
eb|---------------|---------------|
Bb|---------------|---------------|
Gb|-4-------------|-4--------7--5-|
Db|-4-------------|-4--------7--5-|
Ab|-2-2-2-2-2-3-0-|-2-2-2-0--5--3-|
Eb|---------------|---------------|
      * * * * * *     * * *


Riff 3
eb|----------------------------------|
Bb|----------------------------------|
Gb|-----4-----4-4-4------4-----4-4-4-|
Db|-----4-----4-4-4------4-----4-4-4-|
Ab|-2-2---2-2--------2-2---2-2-------|
Eb|----------------------------------|
    * *   * *        * *   * *
   "The feeling that you get......."
eb|----------------------------------|
Bb|----------------------------------|
Gb|-----5-----5-5-5------2-----2-2-2-|
Db|-----5-----5-5-5------2-----2-2-2-|
Ab|-3-3---3-3--------0-0---0-0-------|
Eb|----------------------------------|
    * *   * *        * *   * *
   "You won't see us there......."

Riff 4
eb|-------------------------------------------------------|
Bb|-------------------------------------------------------|
Gb|-------------------------------------------------------|
Db|-5----------4-2---------4-2----------------------------|
Ab|-3-33333333-2-0-0-000-0-2-0-3----------5-2-------------|
Eb|----------------------------1-11111111-3-0-0-000-0-0-0-|
      ********     * *** *       ********     * *** * * *

Play Riff 2   "Night....nightmares......."


Riff 5           x2
eb|---------------|---------------------------|
Bb|-5-5-5-6-5-----|-6-6-6-8-6-----8-------9-8-|
Gb|-4-4-4-5-4-----|-5-5-5-7-5-----7-------8-7-|
Db|-2-2-2-3-2-0-0-|-3-3-3-5-3-0-0-5-5-5-5-6-5-|
Ab|---------------|---------------------------|
Eb|---------------|---------------------------|
              * *             * *   * * *

Play Riff 4   solo rhythm
Play Riff 5

Riff 6           x2
eb|---------------|-------------------------|
Bb|---------------|-------------------------|
Gb|-4-4-4-5-4-----|-5-5-5-7-5-----7-----8-7-|
Db|-2-2-2-3-2-----|-3-3-3-5-3-----5-----6-5-|
Ab|-2-2-2-3-2-0-0-|-3-3-3-5-3-0-0-5-5-5-6-5-|
Eb|---------------|-------------------------|
            
Submit corrections

comments powered by Disqus
↑ Back to top | Iced Earth Tabs for Nightmares. Lyrics for acoustic guitar and electric guitar. Tablatures and chords are parodies/interpretations of the original songs. You may use it for private study, scholarship, research or language learning purposes only