>
 >
Watching Over Me

Watching Over Me Guitar Tabs

Iced Earth - Watching Over Me chords, tabs, tablatures, lyrics

Guitar lessons | Add/correct | Request | Top 50 tabs Artists:  A B C D E F G H I J K L M N O P Q R S T U V W X Y Z 0-9

Watching Over Me Guitar Tabs – Iced Earth

CD, Sheet music, Poster

Do you like Watching Over Me? Share with your friends now
Bass TabsBass Tabs v2Bass Tabs v3Bass Tabs v4Drum TabsTabs
PROPS GO TO: Alp

Intro
e|--------0---|
B|------3---3-|
G|----0-------|
D|--4---------|
A|------------|
E|------------|

acoustic

Listen to song for strumming patterns

e|---0------3-------3-----------------------|
B|---0------3-------3-----------------------|
G|---0------0-------0-----------------------|
D|---2------2-------0------0--0--0--0--0--0-|
A|---2------3-------2------0--0--0--0--0--0-|
E|---0--------------3------2--2--2--3--3--2-|

Distortion
e|----------------------------------------|
B|----------------------------------------|
G|----------------------------------------|
D|----------------5--5--------------------|
A|-------2--3-333-3--3-5-----5-5--5--5--5-|
E|-0-0-0-0-------------3-3-3-3-3--2--3--2-|
   * * *    * ***        * * 

Solo Rhythm                                                            
e|---------------------------------------------------------------------|
B|---------------------------------------------------------------------|
G|---------------------------------------------------------------------|
D|-------------------5-----5-------------------------------------------|
A|--2-----2----------3-3-3-3-3-3-3333--5-----5---------5-----5-----5---|
E|--0-0-0-0-0-0-0000-------------------3-3-3-3-3-3-333-2-2-2-3-3-3-2-2-|
     

e|--------------------------------------------------|
B|--------------------------------------------------|
G|--------------------------------------------------|
D|--------5-5--------7-7--------5-5-------7---7-7-7-|
A|--3-333-3-3--5-555-5-5--3-333-3-3--5-55-5-5-5-5-5-|
E|--------------------------------------------------|
    

e|--------------------------------------------------------|
B|--------------------------------------------------------|
G|--------------------------------------------------------|
D|--------5-5--------7-7--4-----4-4-------4---4-5---------|
A|--3-333-3-3--5-555-5-5--2-2-2-2-2-2-2-2-2-2-----2-3-----|
E|----------------------------------------------------2-3-|
    

e|---------------------------------------------|
B|------------10-------------------------------|
G|--9---11-12----12-11--12\-7--7-9/-12-11-9-11-|
D|---------------------------------------------|
A|---------------------------------------------|
E|---------------------------------------------|

Solo (live version)  but studio is similar



e|---------------------------------------------------------------------|
B|-----------------------------------------------------12---13---15----|
G|--------------------------------------11---12---14-------------------|
D|-------------9----10/12-12-12~--14--12---12---12---12---12---12---12-|
A|-5--7--/9-10---10----------------------------------------------------|
E|---------------------------------------------------------------------|

e|---------------------------------------------------------------------|
B|-15/17-15/17-18^r-18-19-19^^~~---16^r^r-15-13h15p13------------------|
G|----------------------------------------------------14-12h14p12------|
D|---------------------------------------------------------------14-11-|
A|---------------------------------------------------------------------|
E|---------------------------------------------------------------------|

e|---15---17---18^~--17-17-15-17--15-17-18^-17-18-20^--20-19-18-18h19-17-|
B|-15---15---15----------------------------------------------------------|
G|-----------------------------------------------------------------------|
D|-----------------------------------------------------------------------|
A|-----------------------------------------------------------------------|
E|-----------------------------------------------------------------------|

e|-15p14-15~---14-15-16p15-17^-17^-20-17-20/22-22^-22^-22^-22^-22^~~~-|
B|--------------------------------------------------------------------|
G|--------------------------------------------------------------------|
D|--------------------------------------------------------------------|
A|--------------------------------------------------------------------|
E|--------------------------------------------------------------------|

e|-22^~~~~--22~~~-|
B|----------------|
G|----------------|
D|----------------|
A|----------------|
E|----------------|


Iced Earth!!!!!





Comments


Popular Iced Earth tabs & chords
Burnt Offerings Bass Tabs
Mystical End Bass Tabs
Ten Thousand Strong Bass Tabs
The Funeral Bass Tabs
Watching Over Me 4 Bass Tabs
Watching Over Me Drum Tabs
Anthem 1 Tabs
Framing Armageddon Tabs
Melancholy Tabs
Slave To The Dark 2 Tabs


Song lyrics



↑ Back to top | Tablatures and chords are parodies/interpretations of the original songs. You may use it for private study, scholarship, research or language learning purposes only
© 2014 AZChords.com Contact us | Privacy policy | DMCA | Add/correct tabs | Request tabs | Top 50 tabs